  0
SECTION
  2
HEADER
  9
$ACADVER
  1
AC1009
  9
$LUNITS
 70
2
  9
$LUPREC
 70
4
  9
$LTSCALE
 40
1.0
  9
$EXTMIN
 10
-4.000000
 20
-5.097200
 30
0
  9
$EXTMAX
 10
4.000000
 20
5.097200
 30
0
  0
ENDSEC
  0
SECTION
  2
TABLES
  0
TABLE
  2
LTYPE
 70
256
  0
ENDTAB
  0
TABLE
  2
LAYER
 70
1
  0
LAYER
  2
LAYER_1
 70
64
 62
7
  6
CONTINUOUS
  0
ENDTAB
  0
TABLE
  2
STYLE
 70
6
  0
STYLE
  2
STANDARD
 70
0
 40
0
 50
0
 71
0
 41
0
 42
0
  3
TXT
  4
BIGFONT
  0
ENDTAB
  0
ENDSEC
  0
SECTION
  2
BLOCKS
  0
BLOCK
  8
LAYER_1
  2
AIGNBL01020005
 70
64
 10
0
 20
0
 30
0
  3
AIGNBL01020005
  0
POLYLINE
  8
LAYER_1
 40
0.050000
 41
0.050000
 66
1
 10
0
 20
0
 30
0
 70
1
  0
VERTEX
  8
LAYER_1
 10
2.070000
 20
-0.912200
  0
VERTEX
  8
LAYER_1
 10
2.064000
 20
-0.911200
  0
SEQEND
  0
POLYLINE
  8
LAYER_1
 40
0.050000
 41
0.050000
 66
1
 10
0
 20
0
 30
0
 70
1
  0
VERTEX
  8
LAYER_1
 10
2.064000
 20
-0.911200
  0
VERTEX
  8
LAYER_1
 10
2.070000
 20
-0.912200
  0
SEQEND
  0
POLYLINE
  8
LAYER_1
 40
0.050000
 41
0.050000
 66
1
 10
0
 20
0
 30
0
 70
1
  0
VERTEX
  8
LAYER_1
 10
2.064000
 20
-0.911200
  0
VERTEX
  8
LAYER_1
 10
2.058000
 20
-0.911200
  0
SEQEND
  0
POLYLINE
  8
LAYER_1
 40
0.050000
 41
0.050000
 66
1
 10
0
 20
0
 30
0
 70
1
  0
VERTEX
  8
LAYER_1
 10
2.058000
 20
-0.911200
  0
VERTEX
  8
LAYER_1
 10
2.064000
 20
-0.911200
  0
SEQEND
  0
POLYLINE
  8
LAYER_1
 40
0.050000
 41
0.050000
 66
1
 10
0
 20
0
 30
0
 70
1
  0
VERTEX
  8
LAYER_1
 10
2.058000
 20
-0.911200
  0
VERTEX
  8
LAYER_1
 10
2.052000
 20
-0.909200
  0
SEQEND
  0
POLYLINE
  8
LAYER_1
 40
0.050000
 41
0.050000
 66
1
 10
0
 20
0
 30
0
 70
1
  0
VERTEX
  8
LAYER_1
 10
2.052000
 20
-0.909200
  0
VERTEX
  8
LAYER_1
 10
2.058000
 20
-0.911200
  0
SEQEND
  0
POLYLINE
  8
LAYER_1
 40
0.050000
 41
0.050000
 66
1
 10
0
 20
0
 30
0
 70
1
  0
VERTEX
  8
LAYER_1
 10
2.052000
 20
-0.909200
  0
VERTEX
  8
LAYER_1
 10
2.047000
 20
-0.907200
  0
SEQEND
  0
POLYLINE
  8
LAYER_1
 40
0.050000
 41
0.050000
 66
1
 10
0
 20
0
 30
0
 70
1
  0
VERTEX
  8
LAYER_1
 10
2.047000
 20
-0.907200
  0
VERTEX
  8
LAYER_1
 10
2.052000
 20
-0.909200
  0
SEQEND
  0
POLYLINE
  8
LAYER_1
 40
0.050000
 41
0.050000
 66
1
 10
0
 20
0
 30
0
 70
1
  0
VERTEX
  8
LAYER_1
 10
2.047000
 20
-0.907200
  0
VERTEX
  8
LAYER_1
 10
2.042000
 20
-0.905200
  0
SEQEND
  0
POLYLINE
  8
LAYER_1
 40
0.050000
 41
0.050000
 66
1
 10
0
 20
0
 30
0
 70
1
  0
VERTEX
  8
LAYER_1
 10
2.042000
 20
-0.905200
  0
VERTEX
  8
LAYER_1
 10
2.047000
 20
-0.907200
  0
SEQEND
  0
POLYLINE
  8
LAYER_1
 40
0.050000
 41
0.050000
 66
1
 10
0
 20
0
 30
0
 70
1
  0
VERTEX
  8
LAYER_1
 10
2.042000
 20
-0.905200
  0
VERTEX
  8
LAYER_1
 10
2.037000
 20
-0.902200
  0
SEQEND
  0
POLYLINE
  8
LAYER_1
 40
0.050000
 41
0.050000
 66
1
 10
0
 20
0
 30
0
 70
1
  0
VERTEX
  8
LAYER_1
 10
2.037000
 20
-0.902200
  0
VERTEX
  8
LAYER_1
 10
2.042000
 20
-0.905200
  0
SEQEND
  0
POLYLINE
  8
LAYER_1
 40
0.050000
 41
0.050000
 66
1
 10
0
 20
0
 30
0
 70
1
  0
VERTEX
  8
LAYER_1
 10
2.037000
 20
-0.902200
  0
VERTEX
  8
LAYER_1
 10
2.032000
 20
-0.898200
  0
SEQEND
  0
POLYLINE
  8
LAYER_1
 40
0.050000
 41
0.050000
 66
1
 10
0
 20
0
 30
0
 70
1
  0
VERTEX
  8
LAYER_1
 10
2.032000
 20
-0.898200
  0
VERTEX
  8
LAYER_1
 10
2.037000
 20
-0.902200
  0
SEQEND
  0
POLYLINE
  8
LAYER_1
 40
0.050000
 41
0.050000
 66
1
 10
0
 20
0
 30
0
 70
1
  0
VERTEX
  8
LAYER_1
 10
2.032000
 20
-0.898200
  0
VERTEX
  8
LAYER_1
 10
2.028000
 20
-0.894200
  0
SEQEND
  0
POLYLINE
  8
LAYER_1
 40
0.050000
 41
0.050000
 66
1
 10
0
 20
0
 30
0
 70
1
  0
VERTEX
  8
LAYER_1
 10
2.028000
 20
-0.894200
  0
VERTEX
  8
LAYER_1
 10
2.032000
 20
-0.898200
  0
SEQEND
  0
POLYLINE
  8
LAYER_1
 40
0.050000
 41
0.050000
 66
1
 10
0
 20
0
 30
0
 70
1
  0
VERTEX
  8
LAYER_1
 10
2.028000
 20
-0.894200
  0
VERTEX
  8
LAYER_1
 10
2.024000
 20
-0.890200
  0
SEQEND
  0
POLYLINE
  8
LAYER_1
 40
0.050000
 41
0.050000
 66
1
 10
0
 20
0
 30
0
 70
1
  0
VERTEX
  8
LAYER_1
 10
2.024000
 20
-0.890200
  0
VERTEX
  8
LAYER_1
 10
2.028000
 20
-0.894200
  0
SEQEND
  0
POLYLINE
  8
LAYER_1
 40
0.050000
 41
0.050000
 66
1
 10
0
 20
0
 30
0
 70
1
  0
VERTEX
  8
LAYER_1
 10
2.024000
 20
-0.890200
  0
VERTEX
  8
LAYER_1
 10
2.021000
 20
-0.886200
  0
SEQEND
  0
POLYLINE
  8
LAYER_1
 40
0.050000
 41
0.050000
 66
1
 10
0
 20
0
 30
0
 70
1
  0
VERTEX
  8
LAYER_1
 10
2.021000
 20
-0.886200
  0
VERTEX
  8
LAYER_1
 10
2.024000
 20
-0.890200
  0
SEQEND
  0
POLYLINE
  8
LAYER_1
 40
0.050000
 41
0.050000
 66
1
 10
0
 20
0
 30
0
 70
1
  0
VERTEX
  8
LAYER_1
 10
2.021000
 20
-0.886200
  0
VERTEX
  8
LAYER_1
 10
2.018000
 20
-0.881200
  0
SEQEND
  0
POLYLINE
  8
LAYER_1
 40
0.050000
 41
0.050000
 66
1
 10
0
 20
0
 30
0
 70
1
  0
VERTEX
  8
LAYER_1
 10
2.018000
 20
-0.881200
  0
VERTEX
  8
LAYER_1
 10
2.021000
 20
-0.886200
  0
SEQEND
  0
POLYLINE
  8
LAYER_1
 40
0.050000
 41
0.050000
 66
1
 10
0
 20
0
 30
0
 70
1
  0
VERTEX
  8
LAYER_1
 10
2.018000
 20
-0.881200
  0
VERTEX
  8
LAYER_1
 10
2.016000
 20
-0.876200
  0
SEQEND
  0
POLYLINE
  8
LAYER_1
 40
0.050000
 41
0.050000
 66
1
 10
0
 20
0
 30
0
 70
1
  0
VERTEX
  8
LAYER_1
 10
2.016000
 20
-0.876200
  0
VERTEX
  8
LAYER_1
 10
2.018000
 20
-0.881200
  0
SEQEND
  0
POLYLINE
  8
LAYER_1
 40
0.050000
 41
0.050000
 66
1
 10
0
 20
0
 30
0
 70
1
  0
VERTEX
  8
LAYER_1
 10
2.016000
 20
-0.876200
  0
VERTEX
  8
LAYER_1
 10
2.014000
 20
-0.870200
  0
SEQEND
  0
POLYLINE
  8
LAYER_1
 40
0.050000
 41
0.050000
 66
1
 10
0
 20
0
 30
0
 70
1
  0
VERTEX
  8
LAYER_1
 10
2.014000
 20
-0.870200
  0
VERTEX
  8
LAYER_1
 10
2.016000
 20
-0.876200
  0
SEQEND
  0
POLYLINE
  8
LAYER_1
 40
0.050000
 41
0.050000
 66
1
 10
0
 20
0
 30
0
 70
1
  0
VERTEX
  8
LAYER_1
 10
2.014000
 20
-0.870200
  0
VERTEX
  8
LAYER_1
 10
2.012000
 20
-0.865200
  0
SEQEND
  0
POLYLINE
  8
LAYER_1
 40
0.050000
 41
0.050000
 66
1
 10
0
 20
0
 30
0
 70
1
  0
VERTEX
  8
LAYER_1
 10
2.012000
 20
-0.865200
  0
VERTEX
  8
LAYER_1
 10
2.014000
 20
-0.870200
  0
SEQEND
  0
POLYLINE
  8
LAYER_1
 40
0.050000
 41
0.050000
 66
1
 10
0
 20
0
 30
0
 70
1
  0
VERTEX
  8
LAYER_1
 10
2.012000
 20
-0.865200
  0
VERTEX
  8
LAYER_1
 10
2.011000
 20
-0.859200
  0
SEQEND
  0
POLYLINE
  8
LAYER_1
 40
0.050000
 41
0.050000
 66
1
 10
0
 20
0
 30
0
 70
1
  0
VERTEX
  8
LAYER_1
 10
2.011000
 20
-0.859200
  0
VERTEX
  8
LAYER_1
 10
2.012000
 20
-0.865200
  0
SEQEND
  0
POLYLINE
  8
LAYER_1
 40
0.050000
 41
0.050000
 66
1
 10
0
 20
0
 30
0
 70
1
  0
VERTEX
  8
LAYER_1
 10
2.011000
 20
-0.859200
  0
VERTEX
  8
LAYER_1
 10
2.011000
 20
-0.853200
  0
SEQEND
  0
POLYLINE
  8
LAYER_1
 40
0.050000
 41
0.050000
 66
1
 10
0
 20
0
 30
0
 70
1
  0
VERTEX
  8
LAYER_1
 10
2.011000
 20
-0.853200
  0
VERTEX
  8
LAYER_1
 10
2.011000
 20
-0.859200
  0
SEQEND
  0
POLYLINE
  8
LAYER_1
 40
0.050000
 41
0.050000
 66
1
 10
0
 20
0
 30
0
 70
1
  0
VERTEX
  8
LAYER_1
 10
2.011000
 20
-0.853200
  0
VERTEX
  8
LAYER_1
 10
2.011000
 20
-0.847200
  0
SEQEND
  0
POLYLINE
  8
LAYER_1
 40
0.050000
 41
0.050000
 66
1
 10
0
 20
0
 30
0
 70
1
  0
VERTEX
  8
LAYER_1
 10
2.011000
 20
-0.847200
  0
VERTEX
  8
LAYER_1
 10
2.011000
 20
-0.853200
  0
SEQEND
  0
POLYLINE
  8
LAYER_1
 40
0.050000
 41
0.050000
 66
1
 10
0
 20
0
 30
0
 70
1
  0
VERTEX
  8
LAYER_1
 10
2.011000
 20
-0.847200
  0
VERTEX
  8
LAYER_1
 10
2.012000
 20
-0.841200
  0
SEQEND
  0
POLYLINE
  8
LAYER_1
 40
0.050000
 41
0.050000
 66
1
 10
0
 20
0
 30
0
 70
1
  0
VERTEX
  8
LAYER_1
 10
2.012000
 20
-0.841200
  0
VERTEX
  8
LAYER_1
 10
2.011000
 20
-0.847200
  0
SEQEND
  0
POLYLINE
  8
LAYER_1
 40
0.050000
 41
0.050000
 66
1
 10
0
 20
0
 30
0
 70
1
  0
VERTEX
  8
LAYER_1
 10
2.012000
 20
-0.841200
  0
VERTEX
  8
LAYER_1
 10
2.014000
 20
-0.835200
  0
SEQEND
  0
POLYLINE
  8
LAYER_1
 40
0.050000
 41
0.050000
 66
1
 10
0
 20
0
 30
0
 70
1
  0
VERTEX
  8
LAYER_1
 10
2.014000
 20
-0.835200
  0
VERTEX
  8
LAYER_1
 10
2.012000
 20
-0.841200
  0
SEQEND
  0
POLYLINE
  8
LAYER_1
 40
0.050000
 41
0.050000
 66
1
 10
0
 20
0
 30
0
 70
1
  0
VERTEX
  8
LAYER_1
 10
2.014000
 20
-0.835200
  0
VERTEX
  8
LAYER_1
 10
2.016000
 20
-0.830200
  0
SEQEND
  0
POLYLINE
  8
LAYER_1
 40
0.050000
 41
0.050000
 66
1
 10
0
 20
0
 30
0
 70
1
  0
VERTEX
  8
LAYER_1
 10
2.016000
 20
-0.830200
  0
VERTEX
  8
LAYER_1
 10
2.014000
 20
-0.835200
  0
SEQEND
  0
POLYLINE
  8
LAYER_1
 40
0.050000
 41
0.050000
 66
1
 10
0
 20
0
 30
0
 70
1
  0
VERTEX
  8
LAYER_1
 10
2.016000
 20
-0.830200
  0
VERTEX
  8
LAYER_1
 10
2.018000
 20
-0.825200
  0
SEQEND
  0
POLYLINE
  8
LAYER_1
 40
0.050000
 41
0.050000
 66
1
 10
0
 20
0
 30
0
 70
1
  0
VERTEX
  8
LAYER_1
 10
2.018000
 20
-0.825200
  0
VERTEX
  8
LAYER_1
 10
2.016000
 20
-0.830200
  0
SEQEND
  0
POLYLINE
  8
LAYER_1
 40
0.050000
 41
0.050000
 66
1
 10
0
 20
0
 30
0
 70
1
  0
VERTEX
  8
LAYER_1
 10
2.018000
 20
-0.825200
  0
VERTEX
  8
LAYER_1
 10
2.021000
 20
-0.820200
  0
SEQEND
  0
POLYLINE
  8
LAYER_1
 40
0.050000
 41
0.050000
 66
1
 10
0
 20
0
 30
0
 70
1
  0
VERTEX
  8
LAYER_1
 10
2.021000
 20
-0.820200
  0
VERTEX
  8
LAYER_1
 10
2.018000
 20
-0.825200
  0
SEQEND
  0
POLYLINE
  8
LAYER_1
 40
0.050000
 41
0.050000
 66
1
 10
0
 20
0
 30
0
 70
1
  0
VERTEX
  8
LAYER_1
 10
2.021000
 20
-0.820200
  0
VERTEX
  8
LAYER_1
 10
2.024000
 20
-0.815200
  0
SEQEND
  0
POLYLINE
  8
LAYER_1
 40
0.050000
 41
0.050000
 66
1
 10
0
 20
0
 30
0
 70
1
  0
VERTEX
  8
LAYER_1
 10
2.024000
 20
-0.815200
  0
VERTEX
  8
LAYER_1
 10
2.021000
 20
-0.820200
  0
SEQEND
  0
POLYLINE
  8
LAYER_1
 40
0.050000
 41
0.050000
 66
1
 10
0
 20
0
 30
0
 70
1
  0
VERTEX
  8
LAYER_1
 10
2.024000
 20
-0.815200
  0
VERTEX
  8
LAYER_1
 10
2.028000
 20
-0.811200
  0
SEQEND
  0
POLYLINE
  8
LAYER_1
 40
0.050000
 41
0.050000
 66
1
 10
0
 20
0
 30
0
 70
1
  0
VERTEX
  8
LAYER_1
 10
2.028000
 20
-0.811200
  0
VERTEX
  8
LAYER_1
 10
2.024000
 20
-0.815200
  0
SEQEND
  0
POLYLINE
  8
LAYER_1
 40
0.050000
 41
0.050000
 66
1
 10
0
 20
0
 30
0
 70
1
  0
VERTEX
  8
LAYER_1
 10
2.028000
 20
-0.811200
  0
VERTEX
  8
LAYER_1
 10
2.032000
 20
-0.808200
  0
SEQEND
  0
POLYLINE
  8
LAYER_1
 40
0.050000
 41
0.050000
 66
1
 10
0
 20
0
 30
0
 70
1
  0
VERTEX
  8
LAYER_1
 10
2.032000
 20
-0.808200
  0
VERTEX
  8
LAYER_1
 10
2.028000
 20
-0.811200
  0
SEQEND
  0
POLYLINE
  8
LAYER_1
 40
0.050000
 41
0.050000
 66
1
 10
0
 20
0
 30
0
 70
1
  0
VERTEX
  8
LAYER_1
 10
2.032000
 20
-0.808200
  0
VERTEX
  8
LAYER_1
 10
2.037000
 20
-0.804200
  0
SEQEND
  0
POLYLINE
  8
LAYER_1
 40
0.050000
 41
0.050000
 66
1
 10
0
 20
0
 30
0
 70
1
  0
VERTEX
  8
LAYER_1
 10
2.037000
 20
-0.804200
  0
VERTEX
  8
LAYER_1
 10
2.032000
 20
-0.808200
  0
SEQEND
  0
POLYLINE
  8
LAYER_1
 40
0.050000
 41
0.050000
 66
1
 10
0
 20
0
 30
0
 70
1
  0
VERTEX
  8
LAYER_1
 10
2.037000
 20
-0.804200
  0
VERTEX
  8
LAYER_1
 10
2.042000
 20
-0.801200
  0
SEQEND
  0
POLYLINE
  8
LAYER_1
 40
0.050000
 41
0.050000
 66
1
 10
0
 20
0
 30
0
 70
1
  0
VERTEX
  8
LAYER_1
 10
2.042000
 20
-0.801200
  0
VERTEX
  8
LAYER_1
 10
2.037000
 20
-0.804200
  0
SEQEND
  0
POLYLINE
  8
LAYER_1
 40
0.050000
 41
0.050000
 66
1
 10
0
 20
0
 30
0
 70
1
  0
VERTEX
  8
LAYER_1
 10
2.042000
 20
-0.801200
  0
VERTEX
  8
LAYER_1
 10
2.047000
 20
-0.799200
  0
SEQEND
  0
POLYLINE
  8
LAYER_1
 40
0.050000
 41
0.050000
 66
1
 10
0
 20
0
 30
0
 70
1
  0
VERTEX
  8
LAYER_1
 10
2.047000
 20
-0.799200
  0
VERTEX
  8
LAYER_1
 10
2.042000
 20
-0.801200
  0
SEQEND
  0
POLYLINE
  8
LAYER_1
 40
0.050000
 41
0.050000
 66
1
 10
0
 20
0
 30
0
 70
1
  0
VERTEX
  8
LAYER_1
 10
2.047000
 20
-0.799200
  0
VERTEX
  8
LAYER_1
 10
2.052000
 20
-0.797200
  0
SEQEND
  0
POLYLINE
  8
LAYER_1
 40
0.050000
 41
0.050000
 66
1
 10
0
 20
0
 30
0
 70
1
  0
VERTEX
  8
LAYER_1
 10
2.052000
 20
-0.797200
  0
VERTEX
  8
LAYER_1
 10
2.047000
 20
-0.799200
  0
SEQEND
  0
POLYLINE
  8
LAYER_1
 40
0.050000
 41
0.050000
 66
1
 10
0
 20
0
 30
0
 70
1
  0
VERTEX
  8
LAYER_1
 10
2.052000
 20
-0.797200
  0
VERTEX
  8
LAYER_1
 10
2.058000
 20
-0.795200
  0
SEQEND
  0
POLYLINE
  8
LAYER_1
 40
0.050000
 41
0.050000
 66
1
 10
0
 20
0
 30
0
 70
1
  0
VERTEX
  8
LAYER_1
 10
2.058000
 20
-0.795200
  0
VERTEX
  8
LAYER_1
 10
2.052000
 20
-0.797200
  0
SEQEND
  0
POLYLINE
  8
LAYER_1
 40
0.050000
 41
0.050000
 66
1
 10
0
 20
0
 30
0
 70
1
  0
VERTEX
  8
LAYER_1
 10
2.058000
 20
-0.795200
  0
VERTEX
  8
LAYER_1
 10
2.064000
 20
-0.794200
  0
SEQEND
  0
POLYLINE
  8
LAYER_1
 40
0.050000
 41
0.050000
 66
1
 10
0
 20
0
 30
0
 70
1
  0
VERTEX
  8
LAYER_1
 10
2.064000
 20
-0.794200
  0
VERTEX
  8
LAYER_1
 10
2.058000
 20
-0.795200
  0
SEQEND
  0
POLYLINE
  8
LAYER_1
 40
0.050000
 41
0.050000
 66
1
 10
0
 20
0
 30
0
 70
1
  0
VERTEX
  8
LAYER_1
 10
2.064000
 20
-0.794200
  0
VERTEX
  8
LAYER_1
 10
2.070000
 20
-0.794200
  0
SEQEND
  0
POLYLINE
  8
LAYER_1
 40
0.050000
 41
0.050000
 66
1
 10
0
 20
0
 30
0
 70
1
  0
VERTEX
  8
LAYER_1
 10
2.070000
 20
-0.794200
  0
VERTEX
  8
LAYER_1
 10
2.064000
 20
-0.794200
  0
SEQEND
  0
ENDBLK
  0
BLOCK
  8
LAYER_1
  2
AIGNBL01020006
 70
64
 10
0
 20
0
 30
0
  3
AIGNBL01020006
  0
POLYLINE
  8
LAYER_1
 40
0.050000
 41
0.050000
 66
1
 10
0
 20
0
 30
0
 70
1
  0
VERTEX
  8
LAYER_1
 10
3.913000
 20
-0.912200
  0
VERTEX
  8
LAYER_1
 10
3.919000
 20
-0.911200
  0
SEQEND
  0
POLYLINE
  8
LAYER_1
 40
0.050000
 41
0.050000
 66
1
 10
0
 20
0
 30
0
 70
1
  0
VERTEX
  8
LAYER_1
 10
3.919000
 20
-0.911200
  0
VERTEX
  8
LAYER_1
 10
3.913000
 20
-0.912200
  0
SEQEND
  0
POLYLINE
  8
LAYER_1
 40
0.050000
 41
0.050000
 66
1
 10
0
 20
0
 30
0
 70
1
  0
VERTEX
  8
LAYER_1
 10
3.919000
 20
-0.911200
  0
VERTEX
  8
LAYER_1
 10
3.925000
 20
-0.911200
  0
SEQEND
  0
POLYLINE
  8
LAYER_1
 40
0.050000
 41
0.050000
 66
1
 10
0
 20
0
 30
0
 70
1
  0
VERTEX
  8
LAYER_1
 10
3.925000
 20
-0.911200
  0
VERTEX
  8
LAYER_1
 10
3.919000
 20
-0.911200
  0
SEQEND
  0
POLYLINE
  8
LAYER_1
 40
0.050000
 41
0.050000
 66
1
 10
0
 20
0
 30
0
 70
1
  0
VERTEX
  8
LAYER_1
 10
3.925000
 20
-0.911200
  0
VERTEX
  8
LAYER_1
 10
3.930000
 20
-0.909200
  0
SEQEND
  0
POLYLINE
  8
LAYER_1
 40
0.050000
 41
0.050000
 66
1
 10
0
 20
0
 30
0
 70
1
  0
VERTEX
  8
LAYER_1
 10
3.930000
 20
-0.909200
  0
VERTEX
  8
LAYER_1
 10
3.925000
 20
-0.911200
  0
SEQEND
  0
POLYLINE
  8
LAYER_1
 40
0.050000
 41
0.050000
 66
1
 10
0
 20
0
 30
0
 70
1
  0
VERTEX
  8
LAYER_1
 10
3.930000
 20
-0.909200
  0
VERTEX
  8
LAYER_1
 10
3.936000
 20
-0.907200
  0
SEQEND
  0
POLYLINE
  8
LAYER_1
 40
0.050000
 41
0.050000
 66
1
 10
0
 20
0
 30
0
 70
1
  0
VERTEX
  8
LAYER_1
 10
3.936000
 20
-0.907200
  0
VERTEX
  8
LAYER_1
 10
3.930000
 20
-0.909200
  0
SEQEND
  0
POLYLINE
  8
LAYER_1
 40
0.050000
 41
0.050000
 66
1
 10
0
 20
0
 30
0
 70
1
  0
VERTEX
  8
LAYER_1
 10
3.936000
 20
-0.907200
  0
VERTEX
  8
LAYER_1
 10
3.941000
 20
-0.905200
  0
SEQEND
  0
POLYLINE
  8
LAYER_1
 40
0.050000
 41
0.050000
 66
1
 10
0
 20
0
 30
0
 70
1
  0
VERTEX
  8
LAYER_1
 10
3.941000
 20
-0.905200
  0
VERTEX
  8
LAYER_1
 10
3.936000
 20
-0.907200
  0
SEQEND
  0
POLYLINE
  8
LAYER_1
 40
0.050000
 41
0.050000
 66
1
 10
0
 20
0
 30
0
 70
1
  0
VERTEX
  8
LAYER_1
 10
3.941000
 20
-0.905200
  0
VERTEX
  8
LAYER_1
 10
3.946000
 20
-0.902200
  0
SEQEND
  0
POLYLINE
  8
LAYER_1
 40
0.050000
 41
0.050000
 66
1
 10
0
 20
0
 30
0
 70
1
  0
VERTEX
  8
LAYER_1
 10
3.946000
 20
-0.902200
  0
VERTEX
  8
LAYER_1
 10
3.941000
 20
-0.905200
  0
SEQEND
  0
POLYLINE
  8
LAYER_1
 40
0.050000
 41
0.050000
 66
1
 10
0
 20
0
 30
0
 70
1
  0
VERTEX
  8
LAYER_1
 10
3.946000
 20
-0.902200
  0
VERTEX
  8
LAYER_1
 10
3.950000
 20
-0.898200
  0
SEQEND
  0
POLYLINE
  8
LAYER_1
 40
0.050000
 41
0.050000
 66
1
 10
0
 20
0
 30
0
 70
1
  0
VERTEX
  8
LAYER_1
 10
3.950000
 20
-0.898200
  0
VERTEX
  8
LAYER_1
 10
3.946000
 20
-0.902200
  0
SEQEND
  0
POLYLINE
  8
LAYER_1
 40
0.050000
 41
0.050000
 66
1
 10
0
 20
0
 30
0
 70
1
  0
VERTEX
  8
LAYER_1
 10
3.950000
 20
-0.898200
  0
VERTEX
  8
LAYER_1
 10
3.955000
 20
-0.894200
  0
SEQEND
  0
POLYLINE
  8
LAYER_1
 40
0.050000
 41
0.050000
 66
1
 10
0
 20
0
 30
0
 70
1
  0
VERTEX
  8
LAYER_1
 10
3.955000
 20
-0.894200
  0
VERTEX
  8
LAYER_1
 10
3.950000
 20
-0.898200
  0
SEQEND
  0
POLYLINE
  8
LAYER_1
 40
0.050000
 41
0.050000
 66
1
 10
0
 20
0
 30
0
 70
1
  0
VERTEX
  8
LAYER_1
 10
3.955000
 20
-0.894200
  0
VERTEX
  8
LAYER_1
 10
3.958000
 20
-0.890200
  0
SEQEND
  0
POLYLINE
  8
LAYER_1
 40
0.050000
 41
0.050000
 66
1
 10
0
 20
0
 30
0
 70
1
  0
VERTEX
  8
LAYER_1
 10
3.958000
 20
-0.890200
  0
VERTEX
  8
LAYER_1
 10
3.955000
 20
-0.894200
  0
SEQEND
  0
POLYLINE
  8
LAYER_1
 40
0.050000
 41
0.050000
 66
1
 10
0
 20
0
 30
0
 70
1
  0
VERTEX
  8
LAYER_1
 10
3.958000
 20
-0.890200
  0
VERTEX
  8
LAYER_1
 10
3.962000
 20
-0.886200
  0
SEQEND
  0
POLYLINE
  8
LAYER_1
 40
0.050000
 41
0.050000
 66
1
 10
0
 20
0
 30
0
 70
1
  0
VERTEX
  8
LAYER_1
 10
3.962000
 20
-0.886200
  0
VERTEX
  8
LAYER_1
 10
3.958000
 20
-0.890200
  0
SEQEND
  0
POLYLINE
  8
LAYER_1
 40
0.050000
 41
0.050000
 66
1
 10
0
 20
0
 30
0
 70
1
  0
VERTEX
  8
LAYER_1
 10
3.962000
 20
-0.886200
  0
VERTEX
  8
LAYER_1
 10
3.965000
 20
-0.881200
  0
SEQEND
  0
POLYLINE
  8
LAYER_1
 40
0.050000
 41
0.050000
 66
1
 10
0
 20
0
 30
0
 70
1
  0
VERTEX
  8
LAYER_1
 10
3.965000
 20
-0.881200
  0
VERTEX
  8
LAYER_1
 10
3.962000
 20
-0.886200
  0
SEQEND
  0
POLYLINE
  8
LAYER_1
 40
0.050000
 41
0.050000
 66
1
 10
0
 20
0
 30
0
 70
1
  0
VERTEX
  8
LAYER_1
 10
3.965000
 20
-0.881200
  0
VERTEX
  8
LAYER_1
 10
3.967000
 20
-0.876200
  0
SEQEND
  0
POLYLINE
  8
LAYER_1
 40
0.050000
 41
0.050000
 66
1
 10
0
 20
0
 30
0
 70
1
  0
VERTEX
  8
LAYER_1
 10
3.967000
 20
-0.876200
  0
VERTEX
  8
LAYER_1
 10
3.965000
 20
-0.881200
  0
SEQEND
  0
POLYLINE
  8
LAYER_1
 40
0.050000
 41
0.050000
 66
1
 10
0
 20
0
 30
0
 70
1
  0
VERTEX
  8
LAYER_1
 10
3.967000
 20
-0.876200
  0
VERTEX
  8
LAYER_1
 10
3.969000
 20
-0.870200
  0
SEQEND
  0
POLYLINE
  8
LAYER_1
 40
0.050000
 41
0.050000
 66
1
 10
0
 20
0
 30
0
 70
1
  0
VERTEX
  8
LAYER_1
 10
3.969000
 20
-0.870200
  0
VERTEX
  8
LAYER_1
 10
3.967000
 20
-0.876200
  0
SEQEND
  0
POLYLINE
  8
LAYER_1
 40
0.050000
 41
0.050000
 66
1
 10
0
 20
0
 30
0
 70
1
  0
VERTEX
  8
LAYER_1
 10
3.969000
 20
-0.870200
  0
VERTEX
  8
LAYER_1
 10
3.971000
 20
-0.865200
  0
SEQEND
  0
POLYLINE
  8
LAYER_1
 40
0.050000
 41
0.050000
 66
1
 10
0
 20
0
 30
0
 70
1
  0
VERTEX
  8
LAYER_1
 10
3.971000
 20
-0.865200
  0
VERTEX
  8
LAYER_1
 10
3.969000
 20
-0.870200
  0
SEQEND
  0
POLYLINE
  8
LAYER_1
 40
0.050000
 41
0.050000
 66
1
 10
0
 20
0
 30
0
 70
1
  0
VERTEX
  8
LAYER_1
 10
3.971000
 20
-0.865200
  0
VERTEX
  8
LAYER_1
 10
3.971000
 20
-0.859200
  0
SEQEND
  0
POLYLINE
  8
LAYER_1
 40
0.050000
 41
0.050000
 66
1
 10
0
 20
0
 30
0
 70
1
  0
VERTEX
  8
LAYER_1
 10
3.971000
 20
-0.859200
  0
VERTEX
  8
LAYER_1
 10
3.971000
 20
-0.865200
  0
SEQEND
  0
POLYLINE
  8
LAYER_1
 40
0.050000
 41
0.050000
 66
1
 10
0
 20
0
 30
0
 70
1
  0
VERTEX
  8
LAYER_1
 10
3.971000
 20
-0.859200
  0
VERTEX
  8
LAYER_1
 10
3.972000
 20
-0.853200
  0
SEQEND
  0
POLYLINE
  8
LAYER_1
 40
0.050000
 41
0.050000
 66
1
 10
0
 20
0
 30
0
 70
1
  0
VERTEX
  8
LAYER_1
 10
3.972000
 20
-0.853200
  0
VERTEX
  8
LAYER_1
 10
3.971000
 20
-0.859200
  0
SEQEND
  0
POLYLINE
  8
LAYER_1
 40
0.050000
 41
0.050000
 66
1
 10
0
 20
0
 30
0
 70
1
  0
VERTEX
  8
LAYER_1
 10
3.972000
 20
-0.853200
  0
VERTEX
  8
LAYER_1
 10
3.971000
 20
-0.847200
  0
SEQEND
  0
POLYLINE
  8
LAYER_1
 40
0.050000
 41
0.050000
 66
1
 10
0
 20
0
 30
0
 70
1
  0
VERTEX
  8
LAYER_1
 10
3.971000
 20
-0.847200
  0
VERTEX
  8
LAYER_1
 10
3.972000
 20
-0.853200
  0
SEQEND
  0
POLYLINE
  8
LAYER_1
 40
0.050000
 41
0.050000
 66
1
 10
0
 20
0
 30
0
 70
1
  0
VERTEX
  8
LAYER_1
 10
3.971000
 20
-0.847200
  0
VERTEX
  8
LAYER_1
 10
3.971000
 20
-0.841200
  0
SEQEND
  0
POLYLINE
  8
LAYER_1
 40
0.050000
 41
0.050000
 66
1
 10
0
 20
0
 30
0
 70
1
  0
VERTEX
  8
LAYER_1
 10
3.971000
 20
-0.841200
  0
VERTEX
  8
LAYER_1
 10
3.971000
 20
-0.847200
  0
SEQEND
  0
POLYLINE
  8
LAYER_1
 40
0.050000
 41
0.050000
 66
1
 10
0
 20
0
 30
0
 70
1
  0
VERTEX
  8
LAYER_1
 10
3.971000
 20
-0.841200
  0
VERTEX
  8
LAYER_1
 10
3.969000
 20
-0.835200
  0
SEQEND
  0
POLYLINE
  8
LAYER_1
 40
0.050000
 41
0.050000
 66
1
 10
0
 20
0
 30
0
 70
1
  0
VERTEX
  8
LAYER_1
 10
3.969000
 20
-0.835200
  0
VERTEX
  8
LAYER_1
 10
3.971000
 20
-0.841200
  0
SEQEND
  0
POLYLINE
  8
LAYER_1
 40
0.050000
 41
0.050000
 66
1
 10
0
 20
0
 30
0
 70
1
  0
VERTEX
  8
LAYER_1
 10
3.969000
 20
-0.835200
  0
VERTEX
  8
LAYER_1
 10
3.967000
 20
-0.830200
  0
SEQEND
  0
POLYLINE
  8
LAYER_1
 40
0.050000
 41
0.050000
 66
1
 10
0
 20
0
 30
0
 70
1
  0
VERTEX
  8
LAYER_1
 10
3.967000
 20
-0.830200
  0
VERTEX
  8
LAYER_1
 10
3.969000
 20
-0.835200
  0
SEQEND
  0
POLYLINE
  8
LAYER_1
 40
0.050000
 41
0.050000
 66
1
 10
0
 20
0
 30
0
 70
1
  0
VERTEX
  8
LAYER_1
 10
3.967000
 20
-0.830200
  0
VERTEX
  8
LAYER_1
 10
3.965000
 20
-0.825200
  0
SEQEND
  0
POLYLINE
  8
LAYER_1
 40
0.050000
 41
0.050000
 66
1
 10
0
 20
0
 30
0
 70
1
  0
VERTEX
  8
LAYER_1
 10
3.965000
 20
-0.825200
  0
VERTEX
  8
LAYER_1
 10
3.967000
 20
-0.830200
  0
SEQEND
  0
POLYLINE
  8
LAYER_1
 40
0.050000
 41
0.050000
 66
1
 10
0
 20
0
 30
0
 70
1
  0
VERTEX
  8
LAYER_1
 10
3.965000
 20
-0.825200
  0
VERTEX
  8
LAYER_1
 10
3.962000
 20
-0.820200
  0
SEQEND
  0
POLYLINE
  8
LAYER_1
 40
0.050000
 41
0.050000
 66
1
 10
0
 20
0
 30
0
 70
1
  0
VERTEX
  8
LAYER_1
 10
3.962000
 20
-0.820200
  0
VERTEX
  8
LAYER_1
 10
3.965000
 20
-0.825200
  0
SEQEND
  0
POLYLINE
  8
LAYER_1
 40
0.050000
 41
0.050000
 66
1
 10
0
 20
0
 30
0
 70
1
  0
VERTEX
  8
LAYER_1
 10
3.962000
 20
-0.820200
  0
VERTEX
  8
LAYER_1
 10
3.958000
 20
-0.815200
  0
SEQEND
  0
POLYLINE
  8
LAYER_1
 40
0.050000
 41
0.050000
 66
1
 10
0
 20
0
 30
0
 70
1
  0
VERTEX
  8
LAYER_1
 10
3.958000
 20
-0.815200
  0
VERTEX
  8
LAYER_1
 10
3.962000
 20
-0.820200
  0
SEQEND
  0
POLYLINE
  8
LAYER_1
 40
0.050000
 41
0.050000
 66
1
 10
0
 20
0
 30
0
 70
1
  0
VERTEX
  8
LAYER_1
 10
3.958000
 20
-0.815200
  0
VERTEX
  8
LAYER_1
 10
3.955000
 20
-0.811200
  0
SEQEND
  0
POLYLINE
  8
LAYER_1
 40
0.050000
 41
0.050000
 66
1
 10
0
 20
0
 30
0
 70
1
  0
VERTEX
  8
LAYER_1
 10
3.955000
 20
-0.811200
  0
VERTEX
  8
LAYER_1
 10
3.958000
 20
-0.815200
  0
SEQEND
  0
POLYLINE
  8
LAYER_1
 40
0.050000
 41
0.050000
 66
1
 10
0
 20
0
 30
0
 70
1
  0
VERTEX
  8
LAYER_1
 10
3.955000
 20
-0.811200
  0
VERTEX
  8
LAYER_1
 10
3.950000
 20
-0.808200
  0
SEQEND
  0
POLYLINE
  8
LAYER_1
 40
0.050000
 41
0.050000
 66
1
 10
0
 20
0
 30
0
 70
1
  0
VERTEX
  8
LAYER_1
 10
3.950000
 20
-0.808200
  0
VERTEX
  8
LAYER_1
 10
3.955000
 20
-0.811200
  0
SEQEND
  0
POLYLINE
  8
LAYER_1
 40
0.050000
 41
0.050000
 66
1
 10
0
 20
0
 30
0
 70
1
  0
VERTEX
  8
LAYER_1
 10
3.950000
 20
-0.808200
  0
VERTEX
  8
LAYER_1
 10
3.946000
 20
-0.804200
  0
SEQEND
  0
POLYLINE
  8
LAYER_1
 40
0.050000
 41
0.050000
 66
1
 10
0
 20
0
 30
0
 70
1
  0
VERTEX
  8
LAYER_1
 10
3.946000
 20
-0.804200
  0
VERTEX
  8
LAYER_1
 10
3.950000
 20
-0.808200
  0
SEQEND
  0
POLYLINE
  8
LAYER_1
 40
0.050000
 41
0.050000
 66
1
 10
0
 20
0
 30
0
 70
1
  0
VERTEX
  8
LAYER_1
 10
3.946000
 20
-0.804200
  0
VERTEX
  8
LAYER_1
 10
3.941000
 20
-0.801200
  0
SEQEND
  0
POLYLINE
  8
LAYER_1
 40
0.050000
 41
0.050000
 66
1
 10
0
 20
0
 30
0
 70
1
  0
VERTEX
  8
LAYER_1
 10
3.941000
 20
-0.801200
  0
VERTEX
  8
LAYER_1
 10
3.946000
 20
-0.804200
  0
SEQEND
  0
POLYLINE
  8
LAYER_1
 40
0.050000
 41
0.050000
 66
1
 10
0
 20
0
 30
0
 70
1
  0
VERTEX
  8
LAYER_1
 10
3.941000
 20
-0.801200
  0
VERTEX
  8
LAYER_1
 10
3.936000
 20
-0.799200
  0
SEQEND
  0
POLYLINE
  8
LAYER_1
 40
0.050000
 41
0.050000
 66
1
 10
0
 20
0
 30
0
 70
1
  0
VERTEX
  8
LAYER_1
 10
3.936000
 20
-0.799200
  0
VERTEX
  8
LAYER_1
 10
3.941000
 20
-0.801200
  0
SEQEND
  0
POLYLINE
  8
LAYER_1
 40
0.050000
 41
0.050000
 66
1
 10
0
 20
0
 30
0
 70
1
  0
VERTEX
  8
LAYER_1
 10
3.936000
 20
-0.799200
  0
VERTEX
  8
LAYER_1
 10
3.930000
 20
-0.797200
  0
SEQEND
  0
POLYLINE
  8
LAYER_1
 40
0.050000
 41
0.050000
 66
1
 10
0
 20
0
 30
0
 70
1
  0
VERTEX
  8
LAYER_1
 10
3.930000
 20
-0.797200
  0
VERTEX
  8
LAYER_1
 10
3.936000
 20
-0.799200
  0
SEQEND
  0
POLYLINE
  8
LAYER_1
 40
0.050000
 41
0.050000
 66
1
 10
0
 20
0
 30
0
 70
1
  0
VERTEX
  8
LAYER_1
 10
3.930000
 20
-0.797200
  0
VERTEX
  8
LAYER_1
 10
3.925000
 20
-0.795200
  0
SEQEND
  0
POLYLINE
  8
LAYER_1
 40
0.050000
 41
0.050000
 66
1
 10
0
 20
0
 30
0
 70
1
  0
VERTEX
  8
LAYER_1
 10
3.925000
 20
-0.795200
  0
VERTEX
  8
LAYER_1
 10
3.930000
 20
-0.797200
  0
SEQEND
  0
POLYLINE
  8
LAYER_1
 40
0.050000
 41
0.050000
 66
1
 10
0
 20
0
 30
0
 70
1
  0
VERTEX
  8
LAYER_1
 10
3.925000
 20
-0.795200
  0
VERTEX
  8
LAYER_1
 10
3.919000
 20
-0.794200
  0
SEQEND
  0
POLYLINE
  8
LAYER_1
 40
0.050000
 41
0.050000
 66
1
 10
0
 20
0
 30
0
 70
1
  0
VERTEX
  8
LAYER_1
 10
3.919000
 20
-0.794200
  0
VERTEX
  8
LAYER_1
 10
3.925000
 20
-0.795200
  0
SEQEND
  0
POLYLINE
  8
LAYER_1
 40
0.050000
 41
0.050000
 66
1
 10
0
 20
0
 30
0
 70
1
  0
VERTEX
  8
LAYER_1
 10
3.919000
 20
-0.794200
  0
VERTEX
  8
LAYER_1
 10
3.913000
 20
-0.794200
  0
SEQEND
  0
POLYLINE
  8
LAYER_1
 40
0.050000
 41
0.050000
 66
1
 10
0
 20
0
 30
0
 70
1
  0
VERTEX
  8
LAYER_1
 10
3.913000
 20
-0.794200
  0
VERTEX
  8
LAYER_1
 10
3.919000
 20
-0.794200
  0
SEQEND
  0
ENDBLK
  0
BLOCK
  8
LAYER_1
  2
AIGNBL01020007
 70
64
 10
0
 20
0
 30
0
  3
AIGNBL01020007
  0
POLYLINE
  8
LAYER_1
 40
0.050000
 41
0.050000
 66
1
 10
0
 20
0
 30
0
 70
1
  0
VERTEX
  8
LAYER_1
 10
2.168000
 20
-0.716200
  0
VERTEX
  8
LAYER_1
 10
2.168000
 20
-0.755200
  0
SEQEND
  0
POLYLINE
  8
LAYER_1
 40
0.050000
 41
0.050000
 66
1
 10
0
 20
0
 30
0
 70
1
  0
VERTEX
  8
LAYER_1
 10
2.168000
 20
-0.755200
  0
VERTEX
  8
LAYER_1
 10
2.168000
 20
-0.716200
  0
SEQEND
  0
ENDBLK
  0
BLOCK
  8
LAYER_1
  2
AIGNBL01020008
 70
64
 10
0
 20
0
 30
0
  3
AIGNBL01020008
  0
POLYLINE
  8
LAYER_1
 40
0.050000
 41
0.050000
 66
1
 10
0
 20
0
 30
0
 70
1
  0
VERTEX
  8
LAYER_1
 10
3.815000
 20
-0.716200
  0
VERTEX
  8
LAYER_1
 10
3.815000
 20
-0.755200
  0
SEQEND
  0
POLYLINE
  8
LAYER_1
 40
0.050000
 41
0.050000
 66
1
 10
0
 20
0
 30
0
 70
1
  0
VERTEX
  8
LAYER_1
 10
3.815000
 20
-0.755200
  0
VERTEX
  8
LAYER_1
 10
3.815000
 20
-0.716200
  0
SEQEND
  0
ENDBLK
  0
BLOCK
  8
LAYER_1
  2
AIGNBL01020009
 70
64
 10
0
 20
0
 30
0
  3
AIGNBL01020009
  0
POLYLINE
  8
LAYER_1
 40
0.050000
 41
0.050000
 66
1
 10
0
 20
0
 30
0
 70
1
  0
VERTEX
  8
LAYER_1
 10
2.168000
 20
-0.951200
  0
VERTEX
  8
LAYER_1
 10
2.168000
 20
-0.990200
  0
SEQEND
  0
POLYLINE
  8
LAYER_1
 40
0.050000
 41
0.050000
 66
1
 10
0
 20
0
 30
0
 70
1
  0
VERTEX
  8
LAYER_1
 10
2.168000
 20
-0.990200
  0
VERTEX
  8
LAYER_1
 10
2.168000
 20
-0.951200
  0
SEQEND
  0
ENDBLK
  0
BLOCK
  8
LAYER_1
  2
AIGNBL0102000A
 70
64
 10
0
 20
0
 30
0
  3
AIGNBL0102000A
  0
POLYLINE
  8
LAYER_1
 40
0.050000
 41
0.050000
 66
1
 10
0
 20
0
 30
0
 70
1
  0
VERTEX
  8
LAYER_1
 10
3.815000
 20
-0.951200
  0
VERTEX
  8
LAYER_1
 10
3.815000
 20
-0.990200
  0
SEQEND
  0
POLYLINE
  8
LAYER_1
 40
0.050000
 41
0.050000
 66
1
 10
0
 20
0
 30
0
 70
1
  0
VERTEX
  8
LAYER_1
 10
3.815000
 20
-0.990200
  0
VERTEX
  8
LAYER_1
 10
3.815000
 20
-0.951200
  0
SEQEND
  0
ENDBLK
  0
BLOCK
  8
LAYER_1
  2
AIGNBL0102000B
 70
64
 10
0
 20
0
 30
0
  3
AIGNBL0102000B
  0
POLYLINE
  8
LAYER_1
 40
0.050000
 41
0.050000
 66
1
 10
0
 20
0
 30
0
 70
1
  0
VERTEX
  8
LAYER_1
 10
2.227000
 20
-0.657200
  0
VERTEX
  8
LAYER_1
 10
2.991000
 20
-0.657200
  0
SEQEND
  0
POLYLINE
  8
LAYER_1
 40
0.050000
 41
0.050000
 66
1
 10
0
 20
0
 30
0
 70
1
  0
VERTEX
  8
LAYER_1
 10
2.991000
 20
-0.657200
  0
VERTEX
  8
LAYER_1
 10
2.227000
 20
-0.657200
  0
SEQEND
  0
ENDBLK
  0
BLOCK
  8
LAYER_1
  2
AIGNBL0102000C
 70
64
 10
0
 20
0
 30
0
  3
AIGNBL0102000C
  0
POLYLINE
  8
LAYER_1
 40
0.050000
 41
0.050000
 66
1
 10
0
 20
0
 30
0
 70
1
  0
VERTEX
  8
LAYER_1
 10
3.756000
 20
-0.657200
  0
VERTEX
  8
LAYER_1
 10
2.991000
 20
-0.657200
  0
SEQEND
  0
POLYLINE
  8
LAYER_1
 40
0.050000
 41
0.050000
 66
1
 10
0
 20
0
 30
0
 70
1
  0
VERTEX
  8
LAYER_1
 10
2.991000
 20
-0.657200
  0
VERTEX
  8
LAYER_1
 10
3.756000
 20
-0.657200
  0
SEQEND
  0
ENDBLK
  0
BLOCK
  8
LAYER_1
  2
AIGNBL0102000D
 70
64
 10
0
 20
0
 30
0
  3
AIGNBL0102000D
  0
POLYLINE
  8
LAYER_1
 40
0.050000
 41
0.050000
 66
1
 10
0
 20
0
 30
0
 70
1
  0
VERTEX
  8
LAYER_1
 10
2.227000
 20
-1.049200
  0
VERTEX
  8
LAYER_1
 10
2.991000
 20
-1.049200
  0
SEQEND
  0
POLYLINE
  8
LAYER_1
 40
0.050000
 41
0.050000
 66
1
 10
0
 20
0
 30
0
 70
1
  0
VERTEX
  8
LAYER_1
 10
2.991000
 20
-1.049200
  0
VERTEX
  8
LAYER_1
 10
2.227000
 20
-1.049200
  0
SEQEND
  0
ENDBLK
  0
BLOCK
  8
LAYER_1
  2
AIGNBL0102000E
 70
64
 10
0
 20
0
 30
0
  3
AIGNBL0102000E
  0
POLYLINE
  8
LAYER_1
 40
0.050000
 41
0.050000
 66
1
 10
0
 20
0
 30
0
 70
1
  0
VERTEX
  8
LAYER_1
 10
3.756000
 20
-1.049200
  0
VERTEX
  8
LAYER_1
 10
2.991000
 20
-1.049200
  0
SEQEND
  0
POLYLINE
  8
LAYER_1
 40
0.050000
 41
0.050000
 66
1
 10
0
 20
0
 30
0
 70
1
  0
VERTEX
  8
LAYER_1
 10
2.991000
 20
-1.049200
  0
VERTEX
  8
LAYER_1
 10
3.756000
 20
-1.049200
  0
SEQEND
  0
ENDBLK
  0
BLOCK
  8
LAYER_1
  2
AIGNBL0102000F
 70
64
 10
0
 20
0
 30
0
  3
AIGNBL0102000F
  0
POLYLINE
  8
LAYER_1
 40
0.050000
 41
0.050000
 66
1
 10
0
 20
0
 30
0
 70
1
  0
VERTEX
  8
LAYER_1
 10
2.129000
 20
-0.794200
  0
VERTEX
  8
LAYER_1
 10
2.133000
 20
-0.794200
  0
SEQEND
  0
POLYLINE
  8
LAYER_1
 40
0.050000
 41
0.050000
 66
1
 10
0
 20
0
 30
0
 70
1
  0
VERTEX
  8
LAYER_1
 10
2.133000
 20
-0.794200
  0
VERTEX
  8
LAYER_1
 10
2.129000
 20
-0.794200
  0
SEQEND
  0
POLYLINE
  8
LAYER_1
 40
0.050000
 41
0.050000
 66
1
 10
0
 20
0
 30
0
 70
1
  0
VERTEX
  8
LAYER_1
 10
2.133000
 20
-0.794200
  0
VERTEX
  8
LAYER_1
 10
2.136000
 20
-0.793200
  0
SEQEND
  0
POLYLINE
  8
LAYER_1
 40
0.050000
 41
0.050000
 66
1
 10
0
 20
0
 30
0
 70
1
  0
VERTEX
  8
LAYER_1
 10
2.136000
 20
-0.793200
  0
VERTEX
  8
LAYER_1
 10
2.133000
 20
-0.794200
  0
SEQEND
  0
POLYLINE
  8
LAYER_1
 40
0.050000
 41
0.050000
 66
1
 10
0
 20
0
 30
0
 70
1
  0
VERTEX
  8
LAYER_1
 10
2.136000
 20
-0.793200
  0
VERTEX
  8
LAYER_1
 10
2.140000
 20
-0.792200
  0
SEQEND
  0
POLYLINE
  8
LAYER_1
 40
0.050000
 41
0.050000
 66
1
 10
0
 20
0
 30
0
 70
1
  0
VERTEX
  8
LAYER_1
 10
2.140000
 20
-0.792200
  0
VERTEX
  8
LAYER_1
 10
2.136000
 20
-0.793200
  0
SEQEND
  0
POLYLINE
  8
LAYER_1
 40
0.050000
 41
0.050000
 66
1
 10
0
 20
0
 30
0
 70
1
  0
VERTEX
  8
LAYER_1
 10
2.140000
 20
-0.792200
  0
VERTEX
  8
LAYER_1
 10
2.144000
 20
-0.791200
  0
SEQEND
  0
POLYLINE
  8
LAYER_1
 40
0.050000
 41
0.050000
 66
1
 10
0
 20
0
 30
0
 70
1
  0
VERTEX
  8
LAYER_1
 10
2.144000
 20
-0.791200
  0
VERTEX
  8
LAYER_1
 10
2.140000
 20
-0.792200
  0
SEQEND
  0
POLYLINE
  8
LAYER_1
 40
0.050000
 41
0.050000
 66
1
 10
0
 20
0
 30
0
 70
1
  0
VERTEX
  8
LAYER_1
 10
2.144000
 20
-0.791200
  0
VERTEX
  8
LAYER_1
 10
2.147000
 20
-0.789200
  0
SEQEND
  0
POLYLINE
  8
LAYER_1
 40
0.050000
 41
0.050000
 66
1
 10
0
 20
0
 30
0
 70
1
  0
VERTEX
  8
LAYER_1
 10
2.147000
 20
-0.789200
  0
VERTEX
  8
LAYER_1
 10
2.144000
 20
-0.791200
  0
SEQEND
  0
POLYLINE
  8
LAYER_1
 40
0.050000
 41
0.050000
 66
1
 10
0
 20
0
 30
0
 70
1
  0
VERTEX
  8
LAYER_1
 10
2.147000
 20
-0.789200
  0
VERTEX
  8
LAYER_1
 10
2.150000
 20
-0.787200
  0
SEQEND
  0
POLYLINE
  8
LAYER_1
 40
0.050000
 41
0.050000
 66
1
 10
0
 20
0
 30
0
 70
1
  0
VERTEX
  8
LAYER_1
 10
2.150000
 20
-0.787200
  0
VERTEX
  8
LAYER_1
 10
2.147000
 20
-0.789200
  0
SEQEND
  0
POLYLINE
  8
LAYER_1
 40
0.050000
 41
0.050000
 66
1
 10
0
 20
0
 30
0
 70
1
  0
VERTEX
  8
LAYER_1
 10
2.150000
 20
-0.787200
  0
VERTEX
  8
LAYER_1
 10
2.153000
 20
-0.785200
  0
SEQEND
  0
POLYLINE
  8
LAYER_1
 40
0.050000
 41
0.050000
 66
1
 10
0
 20
0
 30
0
 70
1
  0
VERTEX
  8
LAYER_1
 10
2.153000
 20
-0.785200
  0
VERTEX
  8
LAYER_1
 10
2.150000
 20
-0.787200
  0
SEQEND
  0
POLYLINE
  8
LAYER_1
 40
0.050000
 41
0.050000
 66
1
 10
0
 20
0
 30
0
 70
1
  0
VERTEX
  8
LAYER_1
 10
2.153000
 20
-0.785200
  0
VERTEX
  8
LAYER_1
 10
2.156000
 20
-0.783200
  0
SEQEND
  0
POLYLINE
  8
LAYER_1
 40
0.050000
 41
0.050000
 66
1
 10
0
 20
0
 30
0
 70
1
  0
VERTEX
  8
LAYER_1
 10
2.156000
 20
-0.783200
  0
VERTEX
  8
LAYER_1
 10
2.153000
 20
-0.785200
  0
SEQEND
  0
POLYLINE
  8
LAYER_1
 40
0.050000
 41
0.050000
 66
1
 10
0
 20
0
 30
0
 70
1
  0
VERTEX
  8
LAYER_1
 10
2.156000
 20
-0.783200
  0
VERTEX
  8
LAYER_1
 10
2.159000
 20
-0.780200
  0
SEQEND
  0
POLYLINE
  8
LAYER_1
 40
0.050000
 41
0.050000
 66
1
 10
0
 20
0
 30
0
 70
1
  0
VERTEX
  8
LAYER_1
 10
2.159000
 20
-0.780200
  0
VERTEX
  8
LAYER_1
 10
2.156000
 20
-0.783200
  0
SEQEND
  0
POLYLINE
  8
LAYER_1
 40
0.050000
 41
0.050000
 66
1
 10
0
 20
0
 30
0
 70
1
  0
VERTEX
  8
LAYER_1
 10
2.159000
 20
-0.780200
  0
VERTEX
  8
LAYER_1
 10
2.161000
 20
-0.777200
  0
SEQEND
  0
POLYLINE
  8
LAYER_1
 40
0.050000
 41
0.050000
 66
1
 10
0
 20
0
 30
0
 70
1
  0
VERTEX
  8
LAYER_1
 10
2.161000
 20
-0.777200
  0
VERTEX
  8
LAYER_1
 10
2.159000
 20
-0.780200
  0
SEQEND
  0
POLYLINE
  8
LAYER_1
 40
0.050000
 41
0.050000
 66
1
 10
0
 20
0
 30
0
 70
1
  0
VERTEX
  8
LAYER_1
 10
2.161000
 20
-0.777200
  0
VERTEX
  8
LAYER_1
 10
2.163000
 20
-0.774200
  0
SEQEND
  0
POLYLINE
  8
LAYER_1
 40
0.050000
 41
0.050000
 66
1
 10
0
 20
0
 30
0
 70
1
  0
VERTEX
  8
LAYER_1
 10
2.163000
 20
-0.774200
  0
VERTEX
  8
LAYER_1
 10
2.161000
 20
-0.777200
  0
SEQEND
  0
POLYLINE
  8
LAYER_1
 40
0.050000
 41
0.050000
 66
1
 10
0
 20
0
 30
0
 70
1
  0
VERTEX
  8
LAYER_1
 10
2.163000
 20
-0.774200
  0
VERTEX
  8
LAYER_1
 10
2.165000
 20
-0.770200
  0
SEQEND
  0
POLYLINE
  8
LAYER_1
 40
0.050000
 41
0.050000
 66
1
 10
0
 20
0
 30
0
 70
1
  0
VERTEX
  8
LAYER_1
 10
2.165000
 20
-0.770200
  0
VERTEX
  8
LAYER_1
 10
2.163000
 20
-0.774200
  0
SEQEND
  0
POLYLINE
  8
LAYER_1
 40
0.050000
 41
0.050000
 66
1
 10
0
 20
0
 30
0
 70
1
  0
VERTEX
  8
LAYER_1
 10
2.165000
 20
-0.770200
  0
VERTEX
  8
LAYER_1
 10
2.166000
 20
-0.767200
  0
SEQEND
  0
POLYLINE
  8
LAYER_1
 40
0.050000
 41
0.050000
 66
1
 10
0
 20
0
 30
0
 70
1
  0
VERTEX
  8
LAYER_1
 10
2.166000
 20
-0.767200
  0
VERTEX
  8
LAYER_1
 10
2.165000
 20
-0.770200
  0
SEQEND
  0
POLYLINE
  8
LAYER_1
 40
0.050000
 41
0.050000
 66
1
 10
0
 20
0
 30
0
 70
1
  0
VERTEX
  8
LAYER_1
 10
2.166000
 20
-0.767200
  0
VERTEX
  8
LAYER_1
 10
2.167000
 20
-0.763200
  0
SEQEND
  0
POLYLINE
  8
LAYER_1
 40
0.050000
 41
0.050000
 66
1
 10
0
 20
0
 30
0
 70
1
  0
VERTEX
  8
LAYER_1
 10
2.167000
 20
-0.763200
  0
VERTEX
  8
LAYER_1
 10
2.166000
 20
-0.767200
  0
SEQEND
  0
POLYLINE
  8
LAYER_1
 40
0.050000
 41
0.050000
 66
1
 10
0
 20
0
 30
0
 70
1
  0
VERTEX
  8
LAYER_1
 10
2.167000
 20
-0.763200
  0
VERTEX
  8
LAYER_1
 10
2.168000
 20
-0.759200
  0
SEQEND
  0
POLYLINE
  8
LAYER_1
 40
0.050000
 41
0.050000
 66
1
 10
0
 20
0
 30
0
 70
1
  0
VERTEX
  8
LAYER_1
 10
2.168000
 20
-0.759200
  0
VERTEX
  8
LAYER_1
 10
2.167000
 20
-0.763200
  0
SEQEND
  0
POLYLINE
  8
LAYER_1
 40
0.050000
 41
0.050000
 66
1
 10
0
 20
0
 30
0
 70
1
  0
VERTEX
  8
LAYER_1
 10
2.168000
 20
-0.759200
  0
VERTEX
  8
LAYER_1
 10
2.168000
 20
-0.755200
  0
SEQEND
  0
POLYLINE
  8
LAYER_1
 40
0.050000
 41
0.050000
 66
1
 10
0
 20
0
 30
0
 70
1
  0
VERTEX
  8
LAYER_1
 10
2.168000
 20
-0.755200
  0
VERTEX
  8
LAYER_1
 10
2.168000
 20
-0.759200
  0
SEQEND
  0
ENDBLK
  0
BLOCK
  8
LAYER_1
  2
AIGNBL01020010
 70
64
 10
0
 20
0
 30
0
  3
AIGNBL01020010
  0
POLYLINE
  8
LAYER_1
 40
0.050000
 41
0.050000
 66
1
 10
0
 20
0
 30
0
 70
1
  0
VERTEX
  8
LAYER_1
 10
3.854000
 20
-0.794200
  0
VERTEX
  8
LAYER_1
 10
3.850000
 20
-0.794200
  0
SEQEND
  0
POLYLINE
  8
LAYER_1
 40
0.050000
 41
0.050000
 66
1
 10
0
 20
0
 30
0
 70
1
  0
VERTEX
  8
LAYER_1
 10
3.850000
 20
-0.794200
  0
VERTEX
  8
LAYER_1
 10
3.854000
 20
-0.794200
  0
SEQEND
  0
POLYLINE
  8
LAYER_1
 40
0.050000
 41
0.050000
 66
1
 10
0
 20
0
 30
0
 70
1
  0
VERTEX
  8
LAYER_1
 10
3.850000
 20
-0.794200
  0
VERTEX
  8
LAYER_1
 10
3.846000
 20
-0.793200
  0
SEQEND
  0
POLYLINE
  8
LAYER_1
 40
0.050000
 41
0.050000
 66
1
 10
0
 20
0
 30
0
 70
1
  0
VERTEX
  8
LAYER_1
 10
3.846000
 20
-0.793200
  0
VERTEX
  8
LAYER_1
 10
3.850000
 20
-0.794200
  0
SEQEND
  0
POLYLINE
  8
LAYER_1
 40
0.050000
 41
0.050000
 66
1
 10
0
 20
0
 30
0
 70
1
  0
VERTEX
  8
LAYER_1
 10
3.846000
 20
-0.793200
  0
VERTEX
  8
LAYER_1
 10
3.842000
 20
-0.792200
  0
SEQEND
  0
POLYLINE
  8
LAYER_1
 40
0.050000
 41
0.050000
 66
1
 10
0
 20
0
 30
0
 70
1
  0
VERTEX
  8
LAYER_1
 10
3.842000
 20
-0.792200
  0
VERTEX
  8
LAYER_1
 10
3.846000
 20
-0.793200
  0
SEQEND
  0
POLYLINE
  8
LAYER_1
 40
0.050000
 41
0.050000
 66
1
 10
0
 20
0
 30
0
 70
1
  0
VERTEX
  8
LAYER_1
 10
3.842000
 20
-0.792200
  0
VERTEX
  8
LAYER_1
 10
3.839000
 20
-0.791200
  0
SEQEND
  0
POLYLINE
  8
LAYER_1
 40
0.050000
 41
0.050000
 66
1
 10
0
 20
0
 30
0
 70
1
  0
VERTEX
  8
LAYER_1
 10
3.839000
 20
-0.791200
  0
VERTEX
  8
LAYER_1
 10
3.842000
 20
-0.792200
  0
SEQEND
  0
POLYLINE
  8
LAYER_1
 40
0.050000
 41
0.050000
 66
1
 10
0
 20
0
 30
0
 70
1
  0
VERTEX
  8
LAYER_1
 10
3.839000
 20
-0.791200
  0
VERTEX
  8
LAYER_1
 10
3.835000
 20
-0.789200
  0
SEQEND
  0
POLYLINE
  8
LAYER_1
 40
0.050000
 41
0.050000
 66
1
 10
0
 20
0
 30
0
 70
1
  0
VERTEX
  8
LAYER_1
 10
3.835000
 20
-0.789200
  0
VERTEX
  8
LAYER_1
 10
3.839000
 20
-0.791200
  0
SEQEND
  0
POLYLINE
  8
LAYER_1
 40
0.050000
 41
0.050000
 66
1
 10
0
 20
0
 30
0
 70
1
  0
VERTEX
  8
LAYER_1
 10
3.835000
 20
-0.789200
  0
VERTEX
  8
LAYER_1
 10
3.832000
 20
-0.787200
  0
SEQEND
  0
POLYLINE
  8
LAYER_1
 40
0.050000
 41
0.050000
 66
1
 10
0
 20
0
 30
0
 70
1
  0
VERTEX
  8
LAYER_1
 10
3.832000
 20
-0.787200
  0
VERTEX
  8
LAYER_1
 10
3.835000
 20
-0.789200
  0
SEQEND
  0
POLYLINE
  8
LAYER_1
 40
0.050000
 41
0.050000
 66
1
 10
0
 20
0
 30
0
 70
1
  0
VERTEX
  8
LAYER_1
 10
3.832000
 20
-0.787200
  0
VERTEX
  8
LAYER_1
 10
3.829000
 20
-0.785200
  0
SEQEND
  0
POLYLINE
  8
LAYER_1
 40
0.050000
 41
0.050000
 66
1
 10
0
 20
0
 30
0
 70
1
  0
VERTEX
  8
LAYER_1
 10
3.829000
 20
-0.785200
  0
VERTEX
  8
LAYER_1
 10
3.832000
 20
-0.787200
  0
SEQEND
  0
POLYLINE
  8
LAYER_1
 40
0.050000
 41
0.050000
 66
1
 10
0
 20
0
 30
0
 70
1
  0
VERTEX
  8
LAYER_1
 10
3.829000
 20
-0.785200
  0
VERTEX
  8
LAYER_1
 10
3.826000
 20
-0.783200
  0
SEQEND
  0
POLYLINE
  8
LAYER_1
 40
0.050000
 41
0.050000
 66
1
 10
0
 20
0
 30
0
 70
1
  0
VERTEX
  8
LAYER_1
 10
3.826000
 20
-0.783200
  0
VERTEX
  8
LAYER_1
 10
3.829000
 20
-0.785200
  0
SEQEND
  0
POLYLINE
  8
LAYER_1
 40
0.050000
 41
0.050000
 66
1
 10
0
 20
0
 30
0
 70
1
  0
VERTEX
  8
LAYER_1
 10
3.826000
 20
-0.783200
  0
VERTEX
  8
LAYER_1
 10
3.824000
 20
-0.780200
  0
SEQEND
  0
POLYLINE
  8
LAYER_1
 40
0.050000
 41
0.050000
 66
1
 10
0
 20
0
 30
0
 70
1
  0
VERTEX
  8
LAYER_1
 10
3.824000
 20
-0.780200
  0
VERTEX
  8
LAYER_1
 10
3.826000
 20
-0.783200
  0
SEQEND
  0
POLYLINE
  8
LAYER_1
 40
0.050000
 41
0.050000
 66
1
 10
0
 20
0
 30
0
 70
1
  0
VERTEX
  8
LAYER_1
 10
3.824000
 20
-0.780200
  0
VERTEX
  8
LAYER_1
 10
3.822000
 20
-0.777200
  0
SEQEND
  0
POLYLINE
  8
LAYER_1
 40
0.050000
 41
0.050000
 66
1
 10
0
 20
0
 30
0
 70
1
  0
VERTEX
  8
LAYER_1
 10
3.822000
 20
-0.777200
  0
VERTEX
  8
LAYER_1
 10
3.824000
 20
-0.780200
  0
SEQEND
  0
POLYLINE
  8
LAYER_1
 40
0.050000
 41
0.050000
 66
1
 10
0
 20
0
 30
0
 70
1
  0
VERTEX
  8
LAYER_1
 10
3.822000
 20
-0.777200
  0
VERTEX
  8
LAYER_1
 10
3.820000
 20
-0.774200
  0
SEQEND
  0
POLYLINE
  8
LAYER_1
 40
0.050000
 41
0.050000
 66
1
 10
0
 20
0
 30
0
 70
1
  0
VERTEX
  8
LAYER_1
 10
3.820000
 20
-0.774200
  0
VERTEX
  8
LAYER_1
 10
3.822000
 20
-0.777200
  0
SEQEND
  0
POLYLINE
  8
LAYER_1
 40
0.050000
 41
0.050000
 66
1
 10
0
 20
0
 30
0
 70
1
  0
VERTEX
  8
LAYER_1
 10
3.820000
 20
-0.774200
  0
VERTEX
  8
LAYER_1
 10
3.818000
 20
-0.770200
  0
SEQEND
  0
POLYLINE
  8
LAYER_1
 40
0.050000
 41
0.050000
 66
1
 10
0
 20
0
 30
0
 70
1
  0
VERTEX
  8
LAYER_1
 10
3.818000
 20
-0.770200
  0
VERTEX
  8
LAYER_1
 10
3.820000
 20
-0.774200
  0
SEQEND
  0
POLYLINE
  8
LAYER_1
 40
0.050000
 41
0.050000
 66
1
 10
0
 20
0
 30
0
 70
1
  0
VERTEX
  8
LAYER_1
 10
3.818000
 20
-0.770200
  0
VERTEX
  8
LAYER_1
 10
3.817000
 20
-0.767200
  0
SEQEND
  0
POLYLINE
  8
LAYER_1
 40
0.050000
 41
0.050000
 66
1
 10
0
 20
0
 30
0
 70
1
  0
VERTEX
  8
LAYER_1
 10
3.817000
 20
-0.767200
  0
VERTEX
  8
LAYER_1
 10
3.818000
 20
-0.770200
  0
SEQEND
  0
POLYLINE
  8
LAYER_1
 40
0.050000
 41
0.050000
 66
1
 10
0
 20
0
 30
0
 70
1
  0
VERTEX
  8
LAYER_1
 10
3.817000
 20
-0.767200
  0
VERTEX
  8
LAYER_1
 10
3.816000
 20
-0.763200
  0
SEQEND
  0
POLYLINE
  8
LAYER_1
 40
0.050000
 41
0.050000
 66
1
 10
0
 20
0
 30
0
 70
1
  0
VERTEX
  8
LAYER_1
 10
3.816000
 20
-0.763200
  0
VERTEX
  8
LAYER_1
 10
3.817000
 20
-0.767200
  0
SEQEND
  0
POLYLINE
  8
LAYER_1
 40
0.050000
 41
0.050000
 66
1
 10
0
 20
0
 30
0
 70
1
  0
VERTEX
  8
LAYER_1
 10
3.816000
 20
-0.763200
  0
VERTEX
  8
LAYER_1
 10
3.815000
 20
-0.759200
  0
SEQEND
  0
POLYLINE
  8
LAYER_1
 40
0.050000
 41
0.050000
 66
1
 10
0
 20
0
 30
0
 70
1
  0
VERTEX
  8
LAYER_1
 10
3.815000
 20
-0.759200
  0
VERTEX
  8
LAYER_1
 10
3.816000
 20
-0.763200
  0
SEQEND
  0
POLYLINE
  8
LAYER_1
 40
0.050000
 41
0.050000
 66
1
 10
0
 20
0
 30
0
 70
1
  0
VERTEX
  8
LAYER_1
 10
3.815000
 20
-0.759200
  0
VERTEX
  8
LAYER_1
 10
3.815000
 20
-0.755200
  0
SEQEND
  0
POLYLINE
  8
LAYER_1
 40
0.050000
 41
0.050000
 66
1
 10
0
 20
0
 30
0
 70
1
  0
VERTEX
  8
LAYER_1
 10
3.815000
 20
-0.755200
  0
VERTEX
  8
LAYER_1
 10
3.815000
 20
-0.759200
  0
SEQEND
  0
ENDBLK
  0
BLOCK
  8
LAYER_1
  2
AIGNBL01020011
 70
64
 10
0
 20
0
 30
0
  3
AIGNBL01020011
  0
POLYLINE
  8
LAYER_1
 40
0.050000
 41
0.050000
 66
1
 10
0
 20
0
 30
0
 70
1
  0
VERTEX
  8
LAYER_1
 10
2.227000
 20
-0.657200
  0
VERTEX
  8
LAYER_1
 10
2.221000
 20
-0.657200
  0
SEQEND
  0
POLYLINE
  8
LAYER_1
 40
0.050000
 41
0.050000
 66
1
 10
0
 20
0
 30
0
 70
1
  0
VERTEX
  8
LAYER_1
 10
2.221000
 20
-0.657200
  0
VERTEX
  8
LAYER_1
 10
2.227000
 20
-0.657200
  0
SEQEND
  0
POLYLINE
  8
LAYER_1
 40
0.050000
 41
0.050000
 66
1
 10
0
 20
0
 30
0
 70
1
  0
VERTEX
  8
LAYER_1
 10
2.221000
 20
-0.657200
  0
VERTEX
  8
LAYER_1
 10
2.215000
 20
-0.658200
  0
SEQEND
  0
POLYLINE
  8
LAYER_1
 40
0.050000
 41
0.050000
 66
1
 10
0
 20
0
 30
0
 70
1
  0
VERTEX
  8
LAYER_1
 10
2.215000
 20
-0.658200
  0
VERTEX
  8
LAYER_1
 10
2.221000
 20
-0.657200
  0
SEQEND
  0
POLYLINE
  8
LAYER_1
 40
0.050000
 41
0.050000
 66
1
 10
0
 20
0
 30
0
 70
1
  0
VERTEX
  8
LAYER_1
 10
2.215000
 20
-0.658200
  0
VERTEX
  8
LAYER_1
 10
2.209000
 20
-0.659200
  0
SEQEND
  0
POLYLINE
  8
LAYER_1
 40
0.050000
 41
0.050000
 66
1
 10
0
 20
0
 30
0
 70
1
  0
VERTEX
  8
LAYER_1
 10
2.209000
 20
-0.659200
  0
VERTEX
  8
LAYER_1
 10
2.215000
 20
-0.658200
  0
SEQEND
  0
POLYLINE
  8
LAYER_1
 40
0.050000
 41
0.050000
 66
1
 10
0
 20
0
 30
0
 70
1
  0
VERTEX
  8
LAYER_1
 10
2.209000
 20
-0.659200
  0
VERTEX
  8
LAYER_1
 10
2.204000
 20
-0.661200
  0
SEQEND
  0
POLYLINE
  8
LAYER_1
 40
0.050000
 41
0.050000
 66
1
 10
0
 20
0
 30
0
 70
1
  0
VERTEX
  8
LAYER_1
 10
2.204000
 20
-0.661200
  0
VERTEX
  8
LAYER_1
 10
2.209000
 20
-0.659200
  0
SEQEND
  0
POLYLINE
  8
LAYER_1
 40
0.050000
 41
0.050000
 66
1
 10
0
 20
0
 30
0
 70
1
  0
VERTEX
  8
LAYER_1
 10
2.204000
 20
-0.661200
  0
VERTEX
  8
LAYER_1
 10
2.199000
 20
-0.664200
  0
SEQEND
  0
POLYLINE
  8
LAYER_1
 40
0.050000
 41
0.050000
 66
1
 10
0
 20
0
 30
0
 70
1
  0
VERTEX
  8
LAYER_1
 10
2.199000
 20
-0.664200
  0
VERTEX
  8
LAYER_1
 10
2.204000
 20
-0.661200
  0
SEQEND
  0
POLYLINE
  8
LAYER_1
 40
0.050000
 41
0.050000
 66
1
 10
0
 20
0
 30
0
 70
1
  0
VERTEX
  8
LAYER_1
 10
2.199000
 20
-0.664200
  0
VERTEX
  8
LAYER_1
 10
2.194000
 20
-0.667200
  0
SEQEND
  0
POLYLINE
  8
LAYER_1
 40
0.050000
 41
0.050000
 66
1
 10
0
 20
0
 30
0
 70
1
  0
VERTEX
  8
LAYER_1
 10
2.194000
 20
-0.667200
  0
VERTEX
  8
LAYER_1
 10
2.199000
 20
-0.664200
  0
SEQEND
  0
POLYLINE
  8
LAYER_1
 40
0.050000
 41
0.050000
 66
1
 10
0
 20
0
 30
0
 70
1
  0
VERTEX
  8
LAYER_1
 10
2.194000
 20
-0.667200
  0
VERTEX
  8
LAYER_1
 10
2.189000
 20
-0.670200
  0
SEQEND
  0
POLYLINE
  8
LAYER_1
 40
0.050000
 41
0.050000
 66
1
 10
0
 20
0
 30
0
 70
1
  0
VERTEX
  8
LAYER_1
 10
2.189000
 20
-0.670200
  0
VERTEX
  8
LAYER_1
 10
2.194000
 20
-0.667200
  0
SEQEND
  0
POLYLINE
  8
LAYER_1
 40
0.050000
 41
0.050000
 66
1
 10
0
 20
0
 30
0
 70
1
  0
VERTEX
  8
LAYER_1
 10
2.189000
 20
-0.670200
  0
VERTEX
  8
LAYER_1
 10
2.185000
 20
-0.674200
  0
SEQEND
  0
POLYLINE
  8
LAYER_1
 40
0.050000
 41
0.050000
 66
1
 10
0
 20
0
 30
0
 70
1
  0
VERTEX
  8
LAYER_1
 10
2.185000
 20
-0.674200
  0
VERTEX
  8
LAYER_1
 10
2.189000
 20
-0.670200
  0
SEQEND
  0
POLYLINE
  8
LAYER_1
 40
0.050000
 41
0.050000
 66
1
 10
0
 20
0
 30
0
 70
1
  0
VERTEX
  8
LAYER_1
 10
2.185000
 20
-0.674200
  0
VERTEX
  8
LAYER_1
 10
2.181000
 20
-0.678200
  0
SEQEND
  0
POLYLINE
  8
LAYER_1
 40
0.050000
 41
0.050000
 66
1
 10
0
 20
0
 30
0
 70
1
  0
VERTEX
  8
LAYER_1
 10
2.181000
 20
-0.678200
  0
VERTEX
  8
LAYER_1
 10
2.185000
 20
-0.674200
  0
SEQEND
  0
POLYLINE
  8
LAYER_1
 40
0.050000
 41
0.050000
 66
1
 10
0
 20
0
 30
0
 70
1
  0
VERTEX
  8
LAYER_1
 10
2.181000
 20
-0.678200
  0
VERTEX
  8
LAYER_1
 10
2.178000
 20
-0.683200
  0
SEQEND
  0
POLYLINE
  8
LAYER_1
 40
0.050000
 41
0.050000
 66
1
 10
0
 20
0
 30
0
 70
1
  0
VERTEX
  8
LAYER_1
 10
2.178000
 20
-0.683200
  0
VERTEX
  8
LAYER_1
 10
2.181000
 20
-0.678200
  0
SEQEND
  0
POLYLINE
  8
LAYER_1
 40
0.050000
 41
0.050000
 66
1
 10
0
 20
0
 30
0
 70
1
  0
VERTEX
  8
LAYER_1
 10
2.178000
 20
-0.683200
  0
VERTEX
  8
LAYER_1
 10
2.175000
 20
-0.688200
  0
SEQEND
  0
POLYLINE
  8
LAYER_1
 40
0.050000
 41
0.050000
 66
1
 10
0
 20
0
 30
0
 70
1
  0
VERTEX
  8
LAYER_1
 10
2.175000
 20
-0.688200
  0
VERTEX
  8
LAYER_1
 10
2.178000
 20
-0.683200
  0
SEQEND
  0
POLYLINE
  8
LAYER_1
 40
0.050000
 41
0.050000
 66
1
 10
0
 20
0
 30
0
 70
1
  0
VERTEX
  8
LAYER_1
 10
2.175000
 20
-0.688200
  0
VERTEX
  8
LAYER_1
 10
2.172000
 20
-0.693200
  0
SEQEND
  0
POLYLINE
  8
LAYER_1
 40
0.050000
 41
0.050000
 66
1
 10
0
 20
0
 30
0
 70
1
  0
VERTEX
  8
LAYER_1
 10
2.172000
 20
-0.693200
  0
VERTEX
  8
LAYER_1
 10
2.175000
 20
-0.688200
  0
SEQEND
  0
POLYLINE
  8
LAYER_1
 40
0.050000
 41
0.050000
 66
1
 10
0
 20
0
 30
0
 70
1
  0
VERTEX
  8
LAYER_1
 10
2.172000
 20
-0.693200
  0
VERTEX
  8
LAYER_1
 10
2.170000
 20
-0.698200
  0
SEQEND
  0
POLYLINE
  8
LAYER_1
 40
0.050000
 41
0.050000
 66
1
 10
0
 20
0
 30
0
 70
1
  0
VERTEX
  8
LAYER_1
 10
2.170000
 20
-0.698200
  0
VERTEX
  8
LAYER_1
 10
2.172000
 20
-0.693200
  0
SEQEND
  0
POLYLINE
  8
LAYER_1
 40
0.050000
 41
0.050000
 66
1
 10
0
 20
0
 30
0
 70
1
  0
VERTEX
  8
LAYER_1
 10
2.170000
 20
-0.698200
  0
VERTEX
  8
LAYER_1
 10
2.169000
 20
-0.704200
  0
SEQEND
  0
POLYLINE
  8
LAYER_1
 40
0.050000
 41
0.050000
 66
1
 10
0
 20
0
 30
0
 70
1
  0
VERTEX
  8
LAYER_1
 10
2.169000
 20
-0.704200
  0
VERTEX
  8
LAYER_1
 10
2.170000
 20
-0.698200
  0
SEQEND
  0
POLYLINE
  8
LAYER_1
 40
0.050000
 41
0.050000
 66
1
 10
0
 20
0
 30
0
 70
1
  0
VERTEX
  8
LAYER_1
 10
2.169000
 20
-0.704200
  0
VERTEX
  8
LAYER_1
 10
2.168000
 20
-0.710200
  0
SEQEND
  0
POLYLINE
  8
LAYER_1
 40
0.050000
 41
0.050000
 66
1
 10
0
 20
0
 30
0
 70
1
  0
VERTEX
  8
LAYER_1
 10
2.168000
 20
-0.710200
  0
VERTEX
  8
LAYER_1
 10
2.169000
 20
-0.704200
  0
SEQEND
  0
POLYLINE
  8
LAYER_1
 40
0.050000
 41
0.050000
 66
1
 10
0
 20
0
 30
0
 70
1
  0
VERTEX
  8
LAYER_1
 10
2.168000
 20
-0.710200
  0
VERTEX
  8
LAYER_1
 10
2.168000
 20
-0.716200
  0
SEQEND
  0
POLYLINE
  8
LAYER_1
 40
0.050000
 41
0.050000
 66
1
 10
0
 20
0
 30
0
 70
1
  0
VERTEX
  8
LAYER_1
 10
2.168000
 20
-0.716200
  0
VERTEX
  8
LAYER_1
 10
2.168000
 20
-0.710200
  0
SEQEND
  0
ENDBLK
  0
BLOCK
  8
LAYER_1
  2
AIGNBL01020012
 70
64
 10
0
 20
0
 30
0
  3
AIGNBL01020012
  0
POLYLINE
  8
LAYER_1
 40
0.050000
 41
0.050000
 66
1
 10
0
 20
0
 30
0
 70
1
  0
VERTEX
  8
LAYER_1
 10
3.756000
 20
-0.657200
  0
VERTEX
  8
LAYER_1
 10
3.762000
 20
-0.657200
  0
SEQEND
  0
POLYLINE
  8
LAYER_1
 40
0.050000
 41
0.050000
 66
1
 10
0
 20
0
 30
0
 70
1
  0
VERTEX
  8
LAYER_1
 10
3.762000
 20
-0.657200
  0
VERTEX
  8
LAYER_1
 10
3.756000
 20
-0.657200
  0
SEQEND
  0
POLYLINE
  8
LAYER_1
 40
0.050000
 41
0.050000
 66
1
 10
0
 20
0
 30
0
 70
1
  0
VERTEX
  8
LAYER_1
 10
3.762000
 20
-0.657200
  0
VERTEX
  8
LAYER_1
 10
3.768000
 20
-0.658200
  0
SEQEND
  0
POLYLINE
  8
LAYER_1
 40
0.050000
 41
0.050000
 66
1
 10
0
 20
0
 30
0
 70
1
  0
VERTEX
  8
LAYER_1
 10
3.768000
 20
-0.658200
  0
VERTEX
  8
LAYER_1
 10
3.762000
 20
-0.657200
  0
SEQEND
  0
POLYLINE
  8
LAYER_1
 40
0.050000
 41
0.050000
 66
1
 10
0
 20
0
 30
0
 70
1
  0
VERTEX
  8
LAYER_1
 10
3.768000
 20
-0.658200
  0
VERTEX
  8
LAYER_1
 10
3.774000
 20
-0.659200
  0
SEQEND
  0
POLYLINE
  8
LAYER_1
 40
0.050000
 41
0.050000
 66
1
 10
0
 20
0
 30
0
 70
1
  0
VERTEX
  8
LAYER_1
 10
3.774000
 20
-0.659200
  0
VERTEX
  8
LAYER_1
 10
3.768000
 20
-0.658200
  0
SEQEND
  0
POLYLINE
  8
LAYER_1
 40
0.050000
 41
0.050000
 66
1
 10
0
 20
0
 30
0
 70
1
  0
VERTEX
  8
LAYER_1
 10
3.774000
 20
-0.659200
  0
VERTEX
  8
LAYER_1
 10
3.779000
 20
-0.661200
  0
SEQEND
  0
POLYLINE
  8
LAYER_1
 40
0.050000
 41
0.050000
 66
1
 10
0
 20
0
 30
0
 70
1
  0
VERTEX
  8
LAYER_1
 10
3.779000
 20
-0.661200
  0
VERTEX
  8
LAYER_1
 10
3.774000
 20
-0.659200
  0
SEQEND
  0
POLYLINE
  8
LAYER_1
 40
0.050000
 41
0.050000
 66
1
 10
0
 20
0
 30
0
 70
1
  0
VERTEX
  8
LAYER_1
 10
3.779000
 20
-0.661200
  0
VERTEX
  8
LAYER_1
 10
3.784000
 20
-0.664200
  0
SEQEND
  0
POLYLINE
  8
LAYER_1
 40
0.050000
 41
0.050000
 66
1
 10
0
 20
0
 30
0
 70
1
  0
VERTEX
  8
LAYER_1
 10
3.784000
 20
-0.664200
  0
VERTEX
  8
LAYER_1
 10
3.779000
 20
-0.661200
  0
SEQEND
  0
POLYLINE
  8
LAYER_1
 40
0.050000
 41
0.050000
 66
1
 10
0
 20
0
 30
0
 70
1
  0
VERTEX
  8
LAYER_1
 10
3.784000
 20
-0.664200
  0
VERTEX
  8
LAYER_1
 10
3.789000
 20
-0.667200
  0
SEQEND
  0
POLYLINE
  8
LAYER_1
 40
0.050000
 41
0.050000
 66
1
 10
0
 20
0
 30
0
 70
1
  0
VERTEX
  8
LAYER_1
 10
3.789000
 20
-0.667200
  0
VERTEX
  8
LAYER_1
 10
3.784000
 20
-0.664200
  0
SEQEND
  0
POLYLINE
  8
LAYER_1
 40
0.050000
 41
0.050000
 66
1
 10
0
 20
0
 30
0
 70
1
  0
VERTEX
  8
LAYER_1
 10
3.789000
 20
-0.667200
  0
VERTEX
  8
LAYER_1
 10
3.794000
 20
-0.670200
  0
SEQEND
  0
POLYLINE
  8
LAYER_1
 40
0.050000
 41
0.050000
 66
1
 10
0
 20
0
 30
0
 70
1
  0
VERTEX
  8
LAYER_1
 10
3.794000
 20
-0.670200
  0
VERTEX
  8
LAYER_1
 10
3.789000
 20
-0.667200
  0
SEQEND
  0
POLYLINE
  8
LAYER_1
 40
0.050000
 41
0.050000
 66
1
 10
0
 20
0
 30
0
 70
1
  0
VERTEX
  8
LAYER_1
 10
3.794000
 20
-0.670200
  0
VERTEX
  8
LAYER_1
 10
3.798000
 20
-0.674200
  0
SEQEND
  0
POLYLINE
  8
LAYER_1
 40
0.050000
 41
0.050000
 66
1
 10
0
 20
0
 30
0
 70
1
  0
VERTEX
  8
LAYER_1
 10
3.798000
 20
-0.674200
  0
VERTEX
  8
LAYER_1
 10
3.794000
 20
-0.670200
  0
SEQEND
  0
POLYLINE
  8
LAYER_1
 40
0.050000
 41
0.050000
 66
1
 10
0
 20
0
 30
0
 70
1
  0
VERTEX
  8
LAYER_1
 10
3.798000
 20
-0.674200
  0
VERTEX
  8
LAYER_1
 10
3.801000
 20
-0.678200
  0
SEQEND
  0
POLYLINE
  8
LAYER_1
 40
0.050000
 41
0.050000
 66
1
 10
0
 20
0
 30
0
 70
1
  0
VERTEX
  8
LAYER_1
 10
3.801000
 20
-0.678200
  0
VERTEX
  8
LAYER_1
 10
3.798000
 20
-0.674200
  0
SEQEND
  0
POLYLINE
  8
LAYER_1
 40
0.050000
 41
0.050000
 66
1
 10
0
 20
0
 30
0
 70
1
  0
VERTEX
  8
LAYER_1
 10
3.801000
 20
-0.678200
  0
VERTEX
  8
LAYER_1
 10
3.805000
 20
-0.683200
  0
SEQEND
  0
POLYLINE
  8
LAYER_1
 40
0.050000
 41
0.050000
 66
1
 10
0
 20
0
 30
0
 70
1
  0
VERTEX
  8
LAYER_1
 10
3.805000
 20
-0.683200
  0
VERTEX
  8
LAYER_1
 10
3.801000
 20
-0.678200
  0
SEQEND
  0
POLYLINE
  8
LAYER_1
 40
0.050000
 41
0.050000
 66
1
 10
0
 20
0
 30
0
 70
1
  0
VERTEX
  8
LAYER_1
 10
3.805000
 20
-0.683200
  0
VERTEX
  8
LAYER_1
 10
3.808000
 20
-0.688200
  0
SEQEND
  0
POLYLINE
  8
LAYER_1
 40
0.050000
 41
0.050000
 66
1
 10
0
 20
0
 30
0
 70
1
  0
VERTEX
  8
LAYER_1
 10
3.808000
 20
-0.688200
  0
VERTEX
  8
LAYER_1
 10
3.805000
 20
-0.683200
  0
SEQEND
  0
POLYLINE
  8
LAYER_1
 40
0.050000
 41
0.050000
 66
1
 10
0
 20
0
 30
0
 70
1
  0
VERTEX
  8
LAYER_1
 10
3.808000
 20
-0.688200
  0
VERTEX
  8
LAYER_1
 10
3.810000
 20
-0.693200
  0
SEQEND
  0
POLYLINE
  8
LAYER_1
 40
0.050000
 41
0.050000
 66
1
 10
0
 20
0
 30
0
 70
1
  0
VERTEX
  8
LAYER_1
 10
3.810000
 20
-0.693200
  0
VERTEX
  8
LAYER_1
 10
3.808000
 20
-0.688200
  0
SEQEND
  0
POLYLINE
  8
LAYER_1
 40
0.050000
 41
0.050000
 66
1
 10
0
 20
0
 30
0
 70
1
  0
VERTEX
  8
LAYER_1
 10
3.810000
 20
-0.693200
  0
VERTEX
  8
LAYER_1
 10
3.812000
 20
-0.698200
  0
SEQEND
  0
POLYLINE
  8
LAYER_1
 40
0.050000
 41
0.050000
 66
1
 10
0
 20
0
 30
0
 70
1
  0
VERTEX
  8
LAYER_1
 10
3.812000
 20
-0.698200
  0
VERTEX
  8
LAYER_1
 10
3.810000
 20
-0.693200
  0
SEQEND
  0
POLYLINE
  8
LAYER_1
 40
0.050000
 41
0.050000
 66
1
 10
0
 20
0
 30
0
 70
1
  0
VERTEX
  8
LAYER_1
 10
3.812000
 20
-0.698200
  0
VERTEX
  8
LAYER_1
 10
3.814000
 20
-0.704200
  0
SEQEND
  0
POLYLINE
  8
LAYER_1
 40
0.050000
 41
0.050000
 66
1
 10
0
 20
0
 30
0
 70
1
  0
VERTEX
  8
LAYER_1
 10
3.814000
 20
-0.704200
  0
VERTEX
  8
LAYER_1
 10
3.812000
 20
-0.698200
  0
SEQEND
  0
POLYLINE
  8
LAYER_1
 40
0.050000
 41
0.050000
 66
1
 10
0
 20
0
 30
0
 70
1
  0
VERTEX
  8
LAYER_1
 10
3.814000
 20
-0.704200
  0
VERTEX
  8
LAYER_1
 10
3.815000
 20
-0.710200
  0
SEQEND
  0
POLYLINE
  8
LAYER_1
 40
0.050000
 41
0.050000
 66
1
 10
0
 20
0
 30
0
 70
1
  0
VERTEX
  8
LAYER_1
 10
3.815000
 20
-0.710200
  0
VERTEX
  8
LAYER_1
 10
3.814000
 20
-0.704200
  0
SEQEND
  0
POLYLINE
  8
LAYER_1
 40
0.050000
 41
0.050000
 66
1
 10
0
 20
0
 30
0
 70
1
  0
VERTEX
  8
LAYER_1
 10
3.815000
 20
-0.710200
  0
VERTEX
  8
LAYER_1
 10
3.815000
 20
-0.716200
  0
SEQEND
  0
POLYLINE
  8
LAYER_1
 40
0.050000
 41
0.050000
 66
1
 10
0
 20
0
 30
0
 70
1
  0
VERTEX
  8
LAYER_1
 10
3.815000
 20
-0.716200
  0
VERTEX
  8
LAYER_1
 10
3.815000
 20
-0.710200
  0
SEQEND
  0
ENDBLK
  0
BLOCK
  8
LAYER_1
  2
AIGNBL01020013
 70
64
 10
0
 20
0
 30
0
  3
AIGNBL01020013
  0
POLYLINE
  8
LAYER_1
 40
0.050000
 41
0.050000
 66
1
 10
0
 20
0
 30
0
 70
1
  0
VERTEX
  8
LAYER_1
 10
2.227000
 20
-1.049200
  0
VERTEX
  8
LAYER_1
 10
2.221000
 20
-1.049200
  0
SEQEND
  0
POLYLINE
  8
LAYER_1
 40
0.050000
 41
0.050000
 66
1
 10
0
 20
0
 30
0
 70
1
  0
VERTEX
  8
LAYER_1
 10
2.221000
 20
-1.049200
  0
VERTEX
  8
LAYER_1
 10
2.227000
 20
-1.049200
  0
SEQEND
  0
POLYLINE
  8
LAYER_1
 40
0.050000
 41
0.050000
 66
1
 10
0
 20
0
 30
0
 70
1
  0
VERTEX
  8
LAYER_1
 10
2.221000
 20
-1.049200
  0
VERTEX
  8
LAYER_1
 10
2.215000
 20
-1.048200
  0
SEQEND
  0
POLYLINE
  8
LAYER_1
 40
0.050000
 41
0.050000
 66
1
 10
0
 20
0
 30
0
 70
1
  0
VERTEX
  8
LAYER_1
 10
2.215000
 20
-1.048200
  0
VERTEX
  8
LAYER_1
 10
2.221000
 20
-1.049200
  0
SEQEND
  0
POLYLINE
  8
LAYER_1
 40
0.050000
 41
0.050000
 66
1
 10
0
 20
0
 30
0
 70
1
  0
VERTEX
  8
LAYER_1
 10
2.215000
 20
-1.048200
  0
VERTEX
  8
LAYER_1
 10
2.209000
 20
-1.046200
  0
SEQEND
  0
POLYLINE
  8
LAYER_1
 40
0.050000
 41
0.050000
 66
1
 10
0
 20
0
 30
0
 70
1
  0
VERTEX
  8
LAYER_1
 10
2.209000
 20
-1.046200
  0
VERTEX
  8
LAYER_1
 10
2.215000
 20
-1.048200
  0
SEQEND
  0
POLYLINE
  8
LAYER_1
 40
0.050000
 41
0.050000
 66
1
 10
0
 20
0
 30
0
 70
1
  0
VERTEX
  8
LAYER_1
 10
2.209000
 20
-1.046200
  0
VERTEX
  8
LAYER_1
 10
2.204000
 20
-1.044200
  0
SEQEND
  0
POLYLINE
  8
LAYER_1
 40
0.050000
 41
0.050000
 66
1
 10
0
 20
0
 30
0
 70
1
  0
VERTEX
  8
LAYER_1
 10
2.204000
 20
-1.044200
  0
VERTEX
  8
LAYER_1
 10
2.209000
 20
-1.046200
  0
SEQEND
  0
POLYLINE
  8
LAYER_1
 40
0.050000
 41
0.050000
 66
1
 10
0
 20
0
 30
0
 70
1
  0
VERTEX
  8
LAYER_1
 10
2.204000
 20
-1.044200
  0
VERTEX
  8
LAYER_1
 10
2.199000
 20
-1.042200
  0
SEQEND
  0
POLYLINE
  8
LAYER_1
 40
0.050000
 41
0.050000
 66
1
 10
0
 20
0
 30
0
 70
1
  0
VERTEX
  8
LAYER_1
 10
2.199000
 20
-1.042200
  0
VERTEX
  8
LAYER_1
 10
2.204000
 20
-1.044200
  0
SEQEND
  0
POLYLINE
  8
LAYER_1
 40
0.050000
 41
0.050000
 66
1
 10
0
 20
0
 30
0
 70
1
  0
VERTEX
  8
LAYER_1
 10
2.199000
 20
-1.042200
  0
VERTEX
  8
LAYER_1
 10
2.194000
 20
-1.039200
  0
SEQEND
  0
POLYLINE
  8
LAYER_1
 40
0.050000
 41
0.050000
 66
1
 10
0
 20
0
 30
0
 70
1
  0
VERTEX
  8
LAYER_1
 10
2.194000
 20
-1.039200
  0
VERTEX
  8
LAYER_1
 10
2.199000
 20
-1.042200
  0
SEQEND
  0
POLYLINE
  8
LAYER_1
 40
0.050000
 41
0.050000
 66
1
 10
0
 20
0
 30
0
 70
1
  0
VERTEX
  8
LAYER_1
 10
2.194000
 20
-1.039200
  0
VERTEX
  8
LAYER_1
 10
2.189000
 20
-1.036200
  0
SEQEND
  0
POLYLINE
  8
LAYER_1
 40
0.050000
 41
0.050000
 66
1
 10
0
 20
0
 30
0
 70
1
  0
VERTEX
  8
LAYER_1
 10
2.189000
 20
-1.036200
  0
VERTEX
  8
LAYER_1
 10
2.194000
 20
-1.039200
  0
SEQEND
  0
POLYLINE
  8
LAYER_1
 40
0.050000
 41
0.050000
 66
1
 10
0
 20
0
 30
0
 70
1
  0
VERTEX
  8
LAYER_1
 10
2.189000
 20
-1.036200
  0
VERTEX
  8
LAYER_1
 10
2.185000
 20
-1.032200
  0
SEQEND
  0
POLYLINE
  8
LAYER_1
 40
0.050000
 41
0.050000
 66
1
 10
0
 20
0
 30
0
 70
1
  0
VERTEX
  8
LAYER_1
 10
2.185000
 20
-1.032200
  0
VERTEX
  8
LAYER_1
 10
2.189000
 20
-1.036200
  0
SEQEND
  0
POLYLINE
  8
LAYER_1
 40
0.050000
 41
0.050000
 66
1
 10
0
 20
0
 30
0
 70
1
  0
VERTEX
  8
LAYER_1
 10
2.185000
 20
-1.032200
  0
VERTEX
  8
LAYER_1
 10
2.181000
 20
-1.028200
  0
SEQEND
  0
POLYLINE
  8
LAYER_1
 40
0.050000
 41
0.050000
 66
1
 10
0
 20
0
 30
0
 70
1
  0
VERTEX
  8
LAYER_1
 10
2.181000
 20
-1.028200
  0
VERTEX
  8
LAYER_1
 10
2.185000
 20
-1.032200
  0
SEQEND
  0
POLYLINE
  8
LAYER_1
 40
0.050000
 41
0.050000
 66
1
 10
0
 20
0
 30
0
 70
1
  0
VERTEX
  8
LAYER_1
 10
2.181000
 20
-1.028200
  0
VERTEX
  8
LAYER_1
 10
2.178000
 20
-1.023200
  0
SEQEND
  0
POLYLINE
  8
LAYER_1
 40
0.050000
 41
0.050000
 66
1
 10
0
 20
0
 30
0
 70
1
  0
VERTEX
  8
LAYER_1
 10
2.178000
 20
-1.023200
  0
VERTEX
  8
LAYER_1
 10
2.181000
 20
-1.028200
  0
SEQEND
  0
POLYLINE
  8
LAYER_1
 40
0.050000
 41
0.050000
 66
1
 10
0
 20
0
 30
0
 70
1
  0
VERTEX
  8
LAYER_1
 10
2.178000
 20
-1.023200
  0
VERTEX
  8
LAYER_1
 10
2.175000
 20
-1.018200
  0
SEQEND
  0
POLYLINE
  8
LAYER_1
 40
0.050000
 41
0.050000
 66
1
 10
0
 20
0
 30
0
 70
1
  0
VERTEX
  8
LAYER_1
 10
2.175000
 20
-1.018200
  0
VERTEX
  8
LAYER_1
 10
2.178000
 20
-1.023200
  0
SEQEND
  0
POLYLINE
  8
LAYER_1
 40
0.050000
 41
0.050000
 66
1
 10
0
 20
0
 30
0
 70
1
  0
VERTEX
  8
LAYER_1
 10
2.175000
 20
-1.018200
  0
VERTEX
  8
LAYER_1
 10
2.172000
 20
-1.013200
  0
SEQEND
  0
POLYLINE
  8
LAYER_1
 40
0.050000
 41
0.050000
 66
1
 10
0
 20
0
 30
0
 70
1
  0
VERTEX
  8
LAYER_1
 10
2.172000
 20
-1.013200
  0
VERTEX
  8
LAYER_1
 10
2.175000
 20
-1.018200
  0
SEQEND
  0
POLYLINE
  8
LAYER_1
 40
0.050000
 41
0.050000
 66
1
 10
0
 20
0
 30
0
 70
1
  0
VERTEX
  8
LAYER_1
 10
2.172000
 20
-1.013200
  0
VERTEX
  8
LAYER_1
 10
2.170000
 20
-1.008200
  0
SEQEND
  0
POLYLINE
  8
LAYER_1
 40
0.050000
 41
0.050000
 66
1
 10
0
 20
0
 30
0
 70
1
  0
VERTEX
  8
LAYER_1
 10
2.170000
 20
-1.008200
  0
VERTEX
  8
LAYER_1
 10
2.172000
 20
-1.013200
  0
SEQEND
  0
POLYLINE
  8
LAYER_1
 40
0.050000
 41
0.050000
 66
1
 10
0
 20
0
 30
0
 70
1
  0
VERTEX
  8
LAYER_1
 10
2.170000
 20
-1.008200
  0
VERTEX
  8
LAYER_1
 10
2.169000
 20
-1.002200
  0
SEQEND
  0
POLYLINE
  8
LAYER_1
 40
0.050000
 41
0.050000
 66
1
 10
0
 20
0
 30
0
 70
1
  0
VERTEX
  8
LAYER_1
 10
2.169000
 20
-1.002200
  0
VERTEX
  8
LAYER_1
 10
2.170000
 20
-1.008200
  0
SEQEND
  0
POLYLINE
  8
LAYER_1
 40
0.050000
 41
0.050000
 66
1
 10
0
 20
0
 30
0
 70
1
  0
VERTEX
  8
LAYER_1
 10
2.169000
 20
-1.002200
  0
VERTEX
  8
LAYER_1
 10
2.168000
 20
-0.996200
  0
SEQEND
  0
POLYLINE
  8
LAYER_1
 40
0.050000
 41
0.050000
 66
1
 10
0
 20
0
 30
0
 70
1
  0
VERTEX
  8
LAYER_1
 10
2.168000
 20
-0.996200
  0
VERTEX
  8
LAYER_1
 10
2.169000
 20
-1.002200
  0
SEQEND
  0
POLYLINE
  8
LAYER_1
 40
0.050000
 41
0.050000
 66
1
 10
0
 20
0
 30
0
 70
1
  0
VERTEX
  8
LAYER_1
 10
2.168000
 20
-0.996200
  0
VERTEX
  8
LAYER_1
 10
2.168000
 20
-0.990200
  0
SEQEND
  0
POLYLINE
  8
LAYER_1
 40
0.050000
 41
0.050000
 66
1
 10
0
 20
0
 30
0
 70
1
  0
VERTEX
  8
LAYER_1
 10
2.168000
 20
-0.990200
  0
VERTEX
  8
LAYER_1
 10
2.168000
 20
-0.996200
  0
SEQEND
  0
ENDBLK
  0
BLOCK
  8
LAYER_1
  2
AIGNBL01020014
 70
64
 10
0
 20
0
 30
0
  3
AIGNBL01020014
  0
POLYLINE
  8
LAYER_1
 40
0.050000
 41
0.050000
 66
1
 10
0
 20
0
 30
0
 70
1
  0
VERTEX
  8
LAYER_1
 10
3.756000
 20
-1.049200
  0
VERTEX
  8
LAYER_1
 10
3.762000
 20
-1.049200
  0
SEQEND
  0
POLYLINE
  8
LAYER_1
 40
0.050000
 41
0.050000
 66
1
 10
0
 20
0
 30
0
 70
1
  0
VERTEX
  8
LAYER_1
 10
3.762000
 20
-1.049200
  0
VERTEX
  8
LAYER_1
 10
3.756000
 20
-1.049200
  0
SEQEND
  0
POLYLINE
  8
LAYER_1
 40
0.050000
 41
0.050000
 66
1
 10
0
 20
0
 30
0
 70
1
  0
VERTEX
  8
LAYER_1
 10
3.762000
 20
-1.049200
  0
VERTEX
  8
LAYER_1
 10
3.768000
 20
-1.048200
  0
SEQEND
  0
POLYLINE
  8
LAYER_1
 40
0.050000
 41
0.050000
 66
1
 10
0
 20
0
 30
0
 70
1
  0
VERTEX
  8
LAYER_1
 10
3.768000
 20
-1.048200
  0
VERTEX
  8
LAYER_1
 10
3.762000
 20
-1.049200
  0
SEQEND
  0
POLYLINE
  8
LAYER_1
 40
0.050000
 41
0.050000
 66
1
 10
0
 20
0
 30
0
 70
1
  0
VERTEX
  8
LAYER_1
 10
3.768000
 20
-1.048200
  0
VERTEX
  8
LAYER_1
 10
3.774000
 20
-1.046200
  0
SEQEND
  0
POLYLINE
  8
LAYER_1
 40
0.050000
 41
0.050000
 66
1
 10
0
 20
0
 30
0
 70
1
  0
VERTEX
  8
LAYER_1
 10
3.774000
 20
-1.046200
  0
VERTEX
  8
LAYER_1
 10
3.768000
 20
-1.048200
  0
SEQEND
  0
POLYLINE
  8
LAYER_1
 40
0.050000
 41
0.050000
 66
1
 10
0
 20
0
 30
0
 70
1
  0
VERTEX
  8
LAYER_1
 10
3.774000
 20
-1.046200
  0
VERTEX
  8
LAYER_1
 10
3.779000
 20
-1.044200
  0
SEQEND
  0
POLYLINE
  8
LAYER_1
 40
0.050000
 41
0.050000
 66
1
 10
0
 20
0
 30
0
 70
1
  0
VERTEX
  8
LAYER_1
 10
3.779000
 20
-1.044200
  0
VERTEX
  8
LAYER_1
 10
3.774000
 20
-1.046200
  0
SEQEND
  0
POLYLINE
  8
LAYER_1
 40
0.050000
 41
0.050000
 66
1
 10
0
 20
0
 30
0
 70
1
  0
VERTEX
  8
LAYER_1
 10
3.779000
 20
-1.044200
  0
VERTEX
  8
LAYER_1
 10
3.784000
 20
-1.042200
  0
SEQEND
  0
POLYLINE
  8
LAYER_1
 40
0.050000
 41
0.050000
 66
1
 10
0
 20
0
 30
0
 70
1
  0
VERTEX
  8
LAYER_1
 10
3.784000
 20
-1.042200
  0
VERTEX
  8
LAYER_1
 10
3.779000
 20
-1.044200
  0
SEQEND
  0
POLYLINE
  8
LAYER_1
 40
0.050000
 41
0.050000
 66
1
 10
0
 20
0
 30
0
 70
1
  0
VERTEX
  8
LAYER_1
 10
3.784000
 20
-1.042200
  0
VERTEX
  8
LAYER_1
 10
3.789000
 20
-1.039200
  0
SEQEND
  0
POLYLINE
  8
LAYER_1
 40
0.050000
 41
0.050000
 66
1
 10
0
 20
0
 30
0
 70
1
  0
VERTEX
  8
LAYER_1
 10
3.789000
 20
-1.039200
  0
VERTEX
  8
LAYER_1
 10
3.784000
 20
-1.042200
  0
SEQEND
  0
POLYLINE
  8
LAYER_1
 40
0.050000
 41
0.050000
 66
1
 10
0
 20
0
 30
0
 70
1
  0
VERTEX
  8
LAYER_1
 10
3.789000
 20
-1.039200
  0
VERTEX
  8
LAYER_1
 10
3.794000
 20
-1.036200
  0
SEQEND
  0
POLYLINE
  8
LAYER_1
 40
0.050000
 41
0.050000
 66
1
 10
0
 20
0
 30
0
 70
1
  0
VERTEX
  8
LAYER_1
 10
3.794000
 20
-1.036200
  0
VERTEX
  8
LAYER_1
 10
3.789000
 20
-1.039200
  0
SEQEND
  0
POLYLINE
  8
LAYER_1
 40
0.050000
 41
0.050000
 66
1
 10
0
 20
0
 30
0
 70
1
  0
VERTEX
  8
LAYER_1
 10
3.794000
 20
-1.036200
  0
VERTEX
  8
LAYER_1
 10
3.798000
 20
-1.032200
  0
SEQEND
  0
POLYLINE
  8
LAYER_1
 40
0.050000
 41
0.050000
 66
1
 10
0
 20
0
 30
0
 70
1
  0
VERTEX
  8
LAYER_1
 10
3.798000
 20
-1.032200
  0
VERTEX
  8
LAYER_1
 10
3.794000
 20
-1.036200
  0
SEQEND
  0
POLYLINE
  8
LAYER_1
 40
0.050000
 41
0.050000
 66
1
 10
0
 20
0
 30
0
 70
1
  0
VERTEX
  8
LAYER_1
 10
3.798000
 20
-1.032200
  0
VERTEX
  8
LAYER_1
 10
3.801000
 20
-1.028200
  0
SEQEND
  0
POLYLINE
  8
LAYER_1
 40
0.050000
 41
0.050000
 66
1
 10
0
 20
0
 30
0
 70
1
  0
VERTEX
  8
LAYER_1
 10
3.801000
 20
-1.028200
  0
VERTEX
  8
LAYER_1
 10
3.798000
 20
-1.032200
  0
SEQEND
  0
POLYLINE
  8
LAYER_1
 40
0.050000
 41
0.050000
 66
1
 10
0
 20
0
 30
0
 70
1
  0
VERTEX
  8
LAYER_1
 10
3.801000
 20
-1.028200
  0
VERTEX
  8
LAYER_1
 10
3.805000
 20
-1.023200
  0
SEQEND
  0
POLYLINE
  8
LAYER_1
 40
0.050000
 41
0.050000
 66
1
 10
0
 20
0
 30
0
 70
1
  0
VERTEX
  8
LAYER_1
 10
3.805000
 20
-1.023200
  0
VERTEX
  8
LAYER_1
 10
3.801000
 20
-1.028200
  0
SEQEND
  0
POLYLINE
  8
LAYER_1
 40
0.050000
 41
0.050000
 66
1
 10
0
 20
0
 30
0
 70
1
  0
VERTEX
  8
LAYER_1
 10
3.805000
 20
-1.023200
  0
VERTEX
  8
LAYER_1
 10
3.808000
 20
-1.018200
  0
SEQEND
  0
POLYLINE
  8
LAYER_1
 40
0.050000
 41
0.050000
 66
1
 10
0
 20
0
 30
0
 70
1
  0
VERTEX
  8
LAYER_1
 10
3.808000
 20
-1.018200
  0
VERTEX
  8
LAYER_1
 10
3.805000
 20
-1.023200
  0
SEQEND
  0
POLYLINE
  8
LAYER_1
 40
0.050000
 41
0.050000
 66
1
 10
0
 20
0
 30
0
 70
1
  0
VERTEX
  8
LAYER_1
 10
3.808000
 20
-1.018200
  0
VERTEX
  8
LAYER_1
 10
3.810000
 20
-1.013200
  0
SEQEND
  0
POLYLINE
  8
LAYER_1
 40
0.050000
 41
0.050000
 66
1
 10
0
 20
0
 30
0
 70
1
  0
VERTEX
  8
LAYER_1
 10
3.810000
 20
-1.013200
  0
VERTEX
  8
LAYER_1
 10
3.808000
 20
-1.018200
  0
SEQEND
  0
POLYLINE
  8
LAYER_1
 40
0.050000
 41
0.050000
 66
1
 10
0
 20
0
 30
0
 70
1
  0
VERTEX
  8
LAYER_1
 10
3.810000
 20
-1.013200
  0
VERTEX
  8
LAYER_1
 10
3.812000
 20
-1.008200
  0
SEQEND
  0
POLYLINE
  8
LAYER_1
 40
0.050000
 41
0.050000
 66
1
 10
0
 20
0
 30
0
 70
1
  0
VERTEX
  8
LAYER_1
 10
3.812000
 20
-1.008200
  0
VERTEX
  8
LAYER_1
 10
3.810000
 20
-1.013200
  0
SEQEND
  0
POLYLINE
  8
LAYER_1
 40
0.050000
 41
0.050000
 66
1
 10
0
 20
0
 30
0
 70
1
  0
VERTEX
  8
LAYER_1
 10
3.812000
 20
-1.008200
  0
VERTEX
  8
LAYER_1
 10
3.814000
 20
-1.002200
  0
SEQEND
  0
POLYLINE
  8
LAYER_1
 40
0.050000
 41
0.050000
 66
1
 10
0
 20
0
 30
0
 70
1
  0
VERTEX
  8
LAYER_1
 10
3.814000
 20
-1.002200
  0
VERTEX
  8
LAYER_1
 10
3.812000
 20
-1.008200
  0
SEQEND
  0
POLYLINE
  8
LAYER_1
 40
0.050000
 41
0.050000
 66
1
 10
0
 20
0
 30
0
 70
1
  0
VERTEX
  8
LAYER_1
 10
3.814000
 20
-1.002200
  0
VERTEX
  8
LAYER_1
 10
3.815000
 20
-0.996200
  0
SEQEND
  0
POLYLINE
  8
LAYER_1
 40
0.050000
 41
0.050000
 66
1
 10
0
 20
0
 30
0
 70
1
  0
VERTEX
  8
LAYER_1
 10
3.815000
 20
-0.996200
  0
VERTEX
  8
LAYER_1
 10
3.814000
 20
-1.002200
  0
SEQEND
  0
POLYLINE
  8
LAYER_1
 40
0.050000
 41
0.050000
 66
1
 10
0
 20
0
 30
0
 70
1
  0
VERTEX
  8
LAYER_1
 10
3.815000
 20
-0.996200
  0
VERTEX
  8
LAYER_1
 10
3.815000
 20
-0.990200
  0
SEQEND
  0
POLYLINE
  8
LAYER_1
 40
0.050000
 41
0.050000
 66
1
 10
0
 20
0
 30
0
 70
1
  0
VERTEX
  8
LAYER_1
 10
3.815000
 20
-0.990200
  0
VERTEX
  8
LAYER_1
 10
3.815000
 20
-0.996200
  0
SEQEND
  0
ENDBLK
  0
BLOCK
  8
LAYER_1
  2
AIGNBL01020015
 70
64
 10
0
 20
0
 30
0
  3
AIGNBL01020015
  0
POLYLINE
  8
LAYER_1
 40
0.050000
 41
0.050000
 66
1
 10
0
 20
0
 30
0
 70
1
  0
VERTEX
  8
LAYER_1
 10
2.129000
 20
-0.912200
  0
VERTEX
  8
LAYER_1
 10
2.133000
 20
-0.912200
  0
SEQEND
  0
POLYLINE
  8
LAYER_1
 40
0.050000
 41
0.050000
 66
1
 10
0
 20
0
 30
0
 70
1
  0
VERTEX
  8
LAYER_1
 10
2.133000
 20
-0.912200
  0
VERTEX
  8
LAYER_1
 10
2.129000
 20
-0.912200
  0
SEQEND
  0
POLYLINE
  8
LAYER_1
 40
0.050000
 41
0.050000
 66
1
 10
0
 20
0
 30
0
 70
1
  0
VERTEX
  8
LAYER_1
 10
2.133000
 20
-0.912200
  0
VERTEX
  8
LAYER_1
 10
2.136000
 20
-0.913200
  0
SEQEND
  0
POLYLINE
  8
LAYER_1
 40
0.050000
 41
0.050000
 66
1
 10
0
 20
0
 30
0
 70
1
  0
VERTEX
  8
LAYER_1
 10
2.136000
 20
-0.913200
  0
VERTEX
  8
LAYER_1
 10
2.133000
 20
-0.912200
  0
SEQEND
  0
POLYLINE
  8
LAYER_1
 40
0.050000
 41
0.050000
 66
1
 10
0
 20
0
 30
0
 70
1
  0
VERTEX
  8
LAYER_1
 10
2.136000
 20
-0.913200
  0
VERTEX
  8
LAYER_1
 10
2.140000
 20
-0.913200
  0
SEQEND
  0
POLYLINE
  8
LAYER_1
 40
0.050000
 41
0.050000
 66
1
 10
0
 20
0
 30
0
 70
1
  0
VERTEX
  8
LAYER_1
 10
2.140000
 20
-0.913200
  0
VERTEX
  8
LAYER_1
 10
2.136000
 20
-0.913200
  0
SEQEND
  0
POLYLINE
  8
LAYER_1
 40
0.050000
 41
0.050000
 66
1
 10
0
 20
0
 30
0
 70
1
  0
VERTEX
  8
LAYER_1
 10
2.140000
 20
-0.913200
  0
VERTEX
  8
LAYER_1
 10
2.144000
 20
-0.915200
  0
SEQEND
  0
POLYLINE
  8
LAYER_1
 40
0.050000
 41
0.050000
 66
1
 10
0
 20
0
 30
0
 70
1
  0
VERTEX
  8
LAYER_1
 10
2.144000
 20
-0.915200
  0
VERTEX
  8
LAYER_1
 10
2.140000
 20
-0.913200
  0
SEQEND
  0
POLYLINE
  8
LAYER_1
 40
0.050000
 41
0.050000
 66
1
 10
0
 20
0
 30
0
 70
1
  0
VERTEX
  8
LAYER_1
 10
2.144000
 20
-0.915200
  0
VERTEX
  8
LAYER_1
 10
2.147000
 20
-0.916200
  0
SEQEND
  0
POLYLINE
  8
LAYER_1
 40
0.050000
 41
0.050000
 66
1
 10
0
 20
0
 30
0
 70
1
  0
VERTEX
  8
LAYER_1
 10
2.147000
 20
-0.916200
  0
VERTEX
  8
LAYER_1
 10
2.144000
 20
-0.915200
  0
SEQEND
  0
POLYLINE
  8
LAYER_1
 40
0.050000
 41
0.050000
 66
1
 10
0
 20
0
 30
0
 70
1
  0
VERTEX
  8
LAYER_1
 10
2.147000
 20
-0.916200
  0
VERTEX
  8
LAYER_1
 10
2.150000
 20
-0.918200
  0
SEQEND
  0
POLYLINE
  8
LAYER_1
 40
0.050000
 41
0.050000
 66
1
 10
0
 20
0
 30
0
 70
1
  0
VERTEX
  8
LAYER_1
 10
2.150000
 20
-0.918200
  0
VERTEX
  8
LAYER_1
 10
2.147000
 20
-0.916200
  0
SEQEND
  0
POLYLINE
  8
LAYER_1
 40
0.050000
 41
0.050000
 66
1
 10
0
 20
0
 30
0
 70
1
  0
VERTEX
  8
LAYER_1
 10
2.150000
 20
-0.918200
  0
VERTEX
  8
LAYER_1
 10
2.153000
 20
-0.921200
  0
SEQEND
  0
POLYLINE
  8
LAYER_1
 40
0.050000
 41
0.050000
 66
1
 10
0
 20
0
 30
0
 70
1
  0
VERTEX
  8
LAYER_1
 10
2.153000
 20
-0.921200
  0
VERTEX
  8
LAYER_1
 10
2.150000
 20
-0.918200
  0
SEQEND
  0
POLYLINE
  8
LAYER_1
 40
0.050000
 41
0.050000
 66
1
 10
0
 20
0
 30
0
 70
1
  0
VERTEX
  8
LAYER_1
 10
2.153000
 20
-0.921200
  0
VERTEX
  8
LAYER_1
 10
2.156000
 20
-0.923200
  0
SEQEND
  0
POLYLINE
  8
LAYER_1
 40
0.050000
 41
0.050000
 66
1
 10
0
 20
0
 30
0
 70
1
  0
VERTEX
  8
LAYER_1
 10
2.156000
 20
-0.923200
  0
VERTEX
  8
LAYER_1
 10
2.153000
 20
-0.921200
  0
SEQEND
  0
POLYLINE
  8
LAYER_1
 40
0.050000
 41
0.050000
 66
1
 10
0
 20
0
 30
0
 70
1
  0
VERTEX
  8
LAYER_1
 10
2.156000
 20
-0.923200
  0
VERTEX
  8
LAYER_1
 10
2.159000
 20
-0.926200
  0
SEQEND
  0
POLYLINE
  8
LAYER_1
 40
0.050000
 41
0.050000
 66
1
 10
0
 20
0
 30
0
 70
1
  0
VERTEX
  8
LAYER_1
 10
2.159000
 20
-0.926200
  0
VERTEX
  8
LAYER_1
 10
2.156000
 20
-0.923200
  0
SEQEND
  0
POLYLINE
  8
LAYER_1
 40
0.050000
 41
0.050000
 66
1
 10
0
 20
0
 30
0
 70
1
  0
VERTEX
  8
LAYER_1
 10
2.159000
 20
-0.926200
  0
VERTEX
  8
LAYER_1
 10
2.161000
 20
-0.929200
  0
SEQEND
  0
POLYLINE
  8
LAYER_1
 40
0.050000
 41
0.050000
 66
1
 10
0
 20
0
 30
0
 70
1
  0
VERTEX
  8
LAYER_1
 10
2.161000
 20
-0.929200
  0
VERTEX
  8
LAYER_1
 10
2.159000
 20
-0.926200
  0
SEQEND
  0
POLYLINE
  8
LAYER_1
 40
0.050000
 41
0.050000
 66
1
 10
0
 20
0
 30
0
 70
1
  0
VERTEX
  8
LAYER_1
 10
2.161000
 20
-0.929200
  0
VERTEX
  8
LAYER_1
 10
2.163000
 20
-0.932200
  0
SEQEND
  0
POLYLINE
  8
LAYER_1
 40
0.050000
 41
0.050000
 66
1
 10
0
 20
0
 30
0
 70
1
  0
VERTEX
  8
LAYER_1
 10
2.163000
 20
-0.932200
  0
VERTEX
  8
LAYER_1
 10
2.161000
 20
-0.929200
  0
SEQEND
  0
POLYLINE
  8
LAYER_1
 40
0.050000
 41
0.050000
 66
1
 10
0
 20
0
 30
0
 70
1
  0
VERTEX
  8
LAYER_1
 10
2.163000
 20
-0.932200
  0
VERTEX
  8
LAYER_1
 10
2.165000
 20
-0.936200
  0
SEQEND
  0
POLYLINE
  8
LAYER_1
 40
0.050000
 41
0.050000
 66
1
 10
0
 20
0
 30
0
 70
1
  0
VERTEX
  8
LAYER_1
 10
2.165000
 20
-0.936200
  0
VERTEX
  8
LAYER_1
 10
2.163000
 20
-0.932200
  0
SEQEND
  0
POLYLINE
  8
LAYER_1
 40
0.050000
 41
0.050000
 66
1
 10
0
 20
0
 30
0
 70
1
  0
VERTEX
  8
LAYER_1
 10
2.165000
 20
-0.936200
  0
VERTEX
  8
LAYER_1
 10
2.166000
 20
-0.939200
  0
SEQEND
  0
POLYLINE
  8
LAYER_1
 40
0.050000
 41
0.050000
 66
1
 10
0
 20
0
 30
0
 70
1
  0
VERTEX
  8
LAYER_1
 10
2.166000
 20
-0.939200
  0
VERTEX
  8
LAYER_1
 10
2.165000
 20
-0.936200
  0
SEQEND
  0
POLYLINE
  8
LAYER_1
 40
0.050000
 41
0.050000
 66
1
 10
0
 20
0
 30
0
 70
1
  0
VERTEX
  8
LAYER_1
 10
2.166000
 20
-0.939200
  0
VERTEX
  8
LAYER_1
 10
2.167000
 20
-0.943200
  0
SEQEND
  0
POLYLINE
  8
LAYER_1
 40
0.050000
 41
0.050000
 66
1
 10
0
 20
0
 30
0
 70
1
  0
VERTEX
  8
LAYER_1
 10
2.167000
 20
-0.943200
  0
VERTEX
  8
LAYER_1
 10
2.166000
 20
-0.939200
  0
SEQEND
  0
POLYLINE
  8
LAYER_1
 40
0.050000
 41
0.050000
 66
1
 10
0
 20
0
 30
0
 70
1
  0
VERTEX
  8
LAYER_1
 10
2.167000
 20
-0.943200
  0
VERTEX
  8
LAYER_1
 10
2.168000
 20
-0.947200
  0
SEQEND
  0
POLYLINE
  8
LAYER_1
 40
0.050000
 41
0.050000
 66
1
 10
0
 20
0
 30
0
 70
1
  0
VERTEX
  8
LAYER_1
 10
2.168000
 20
-0.947200
  0
VERTEX
  8
LAYER_1
 10
2.167000
 20
-0.943200
  0
SEQEND
  0
POLYLINE
  8
LAYER_1
 40
0.050000
 41
0.050000
 66
1
 10
0
 20
0
 30
0
 70
1
  0
VERTEX
  8
LAYER_1
 10
2.168000
 20
-0.947200
  0
VERTEX
  8
LAYER_1
 10
2.168000
 20
-0.951200
  0
SEQEND
  0
POLYLINE
  8
LAYER_1
 40
0.050000
 41
0.050000
 66
1
 10
0
 20
0
 30
0
 70
1
  0
VERTEX
  8
LAYER_1
 10
2.168000
 20
-0.951200
  0
VERTEX
  8
LAYER_1
 10
2.168000
 20
-0.947200
  0
SEQEND
  0
ENDBLK
  0
BLOCK
  8
LAYER_1
  2
AIGNBL01020016
 70
64
 10
0
 20
0
 30
0
  3
AIGNBL01020016
  0
POLYLINE
  8
LAYER_1
 40
0.050000
 41
0.050000
 66
1
 10
0
 20
0
 30
0
 70
1
  0
VERTEX
  8
LAYER_1
 10
3.854000
 20
-0.912200
  0
VERTEX
  8
LAYER_1
 10
3.850000
 20
-0.912200
  0
SEQEND
  0
POLYLINE
  8
LAYER_1
 40
0.050000
 41
0.050000
 66
1
 10
0
 20
0
 30
0
 70
1
  0
VERTEX
  8
LAYER_1
 10
3.850000
 20
-0.912200
  0
VERTEX
  8
LAYER_1
 10
3.854000
 20
-0.912200
  0
SEQEND
  0
POLYLINE
  8
LAYER_1
 40
0.050000
 41
0.050000
 66
1
 10
0
 20
0
 30
0
 70
1
  0
VERTEX
  8
LAYER_1
 10
3.850000
 20
-0.912200
  0
VERTEX
  8
LAYER_1
 10
3.846000
 20
-0.913200
  0
SEQEND
  0
POLYLINE
  8
LAYER_1
 40
0.050000
 41
0.050000
 66
1
 10
0
 20
0
 30
0
 70
1
  0
VERTEX
  8
LAYER_1
 10
3.846000
 20
-0.913200
  0
VERTEX
  8
LAYER_1
 10
3.850000
 20
-0.912200
  0
SEQEND
  0
POLYLINE
  8
LAYER_1
 40
0.050000
 41
0.050000
 66
1
 10
0
 20
0
 30
0
 70
1
  0
VERTEX
  8
LAYER_1
 10
3.846000
 20
-0.913200
  0
VERTEX
  8
LAYER_1
 10
3.842000
 20
-0.913200
  0
SEQEND
  0
POLYLINE
  8
LAYER_1
 40
0.050000
 41
0.050000
 66
1
 10
0
 20
0
 30
0
 70
1
  0
VERTEX
  8
LAYER_1
 10
3.842000
 20
-0.913200
  0
VERTEX
  8
LAYER_1
 10
3.846000
 20
-0.913200
  0
SEQEND
  0
POLYLINE
  8
LAYER_1
 40
0.050000
 41
0.050000
 66
1
 10
0
 20
0
 30
0
 70
1
  0
VERTEX
  8
LAYER_1
 10
3.842000
 20
-0.913200
  0
VERTEX
  8
LAYER_1
 10
3.839000
 20
-0.915200
  0
SEQEND
  0
POLYLINE
  8
LAYER_1
 40
0.050000
 41
0.050000
 66
1
 10
0
 20
0
 30
0
 70
1
  0
VERTEX
  8
LAYER_1
 10
3.839000
 20
-0.915200
  0
VERTEX
  8
LAYER_1
 10
3.842000
 20
-0.913200
  0
SEQEND
  0
POLYLINE
  8
LAYER_1
 40
0.050000
 41
0.050000
 66
1
 10
0
 20
0
 30
0
 70
1
  0
VERTEX
  8
LAYER_1
 10
3.839000
 20
-0.915200
  0
VERTEX
  8
LAYER_1
 10
3.835000
 20
-0.916200
  0
SEQEND
  0
POLYLINE
  8
LAYER_1
 40
0.050000
 41
0.050000
 66
1
 10
0
 20
0
 30
0
 70
1
  0
VERTEX
  8
LAYER_1
 10
3.835000
 20
-0.916200
  0
VERTEX
  8
LAYER_1
 10
3.839000
 20
-0.915200
  0
SEQEND
  0
POLYLINE
  8
LAYER_1
 40
0.050000
 41
0.050000
 66
1
 10
0
 20
0
 30
0
 70
1
  0
VERTEX
  8
LAYER_1
 10
3.835000
 20
-0.916200
  0
VERTEX
  8
LAYER_1
 10
3.832000
 20
-0.918200
  0
SEQEND
  0
POLYLINE
  8
LAYER_1
 40
0.050000
 41
0.050000
 66
1
 10
0
 20
0
 30
0
 70
1
  0
VERTEX
  8
LAYER_1
 10
3.832000
 20
-0.918200
  0
VERTEX
  8
LAYER_1
 10
3.835000
 20
-0.916200
  0
SEQEND
  0
POLYLINE
  8
LAYER_1
 40
0.050000
 41
0.050000
 66
1
 10
0
 20
0
 30
0
 70
1
  0
VERTEX
  8
LAYER_1
 10
3.832000
 20
-0.918200
  0
VERTEX
  8
LAYER_1
 10
3.829000
 20
-0.921200
  0
SEQEND
  0
POLYLINE
  8
LAYER_1
 40
0.050000
 41
0.050000
 66
1
 10
0
 20
0
 30
0
 70
1
  0
VERTEX
  8
LAYER_1
 10
3.829000
 20
-0.921200
  0
VERTEX
  8
LAYER_1
 10
3.832000
 20
-0.918200
  0
SEQEND
  0
POLYLINE
  8
LAYER_1
 40
0.050000
 41
0.050000
 66
1
 10
0
 20
0
 30
0
 70
1
  0
VERTEX
  8
LAYER_1
 10
3.829000
 20
-0.921200
  0
VERTEX
  8
LAYER_1
 10
3.826000
 20
-0.923200
  0
SEQEND
  0
POLYLINE
  8
LAYER_1
 40
0.050000
 41
0.050000
 66
1
 10
0
 20
0
 30
0
 70
1
  0
VERTEX
  8
LAYER_1
 10
3.826000
 20
-0.923200
  0
VERTEX
  8
LAYER_1
 10
3.829000
 20
-0.921200
  0
SEQEND
  0
POLYLINE
  8
LAYER_1
 40
0.050000
 41
0.050000
 66
1
 10
0
 20
0
 30
0
 70
1
  0
VERTEX
  8
LAYER_1
 10
3.826000
 20
-0.923200
  0
VERTEX
  8
LAYER_1
 10
3.824000
 20
-0.926200
  0
SEQEND
  0
POLYLINE
  8
LAYER_1
 40
0.050000
 41
0.050000
 66
1
 10
0
 20
0
 30
0
 70
1
  0
VERTEX
  8
LAYER_1
 10
3.824000
 20
-0.926200
  0
VERTEX
  8
LAYER_1
 10
3.826000
 20
-0.923200
  0
SEQEND
  0
POLYLINE
  8
LAYER_1
 40
0.050000
 41
0.050000
 66
1
 10
0
 20
0
 30
0
 70
1
  0
VERTEX
  8
LAYER_1
 10
3.824000
 20
-0.926200
  0
VERTEX
  8
LAYER_1
 10
3.822000
 20
-0.929200
  0
SEQEND
  0
POLYLINE
  8
LAYER_1
 40
0.050000
 41
0.050000
 66
1
 10
0
 20
0
 30
0
 70
1
  0
VERTEX
  8
LAYER_1
 10
3.822000
 20
-0.929200
  0
VERTEX
  8
LAYER_1
 10
3.824000
 20
-0.926200
  0
SEQEND
  0
POLYLINE
  8
LAYER_1
 40
0.050000
 41
0.050000
 66
1
 10
0
 20
0
 30
0
 70
1
  0
VERTEX
  8
LAYER_1
 10
3.822000
 20
-0.929200
  0
VERTEX
  8
LAYER_1
 10
3.820000
 20
-0.932200
  0
SEQEND
  0
POLYLINE
  8
LAYER_1
 40
0.050000
 41
0.050000
 66
1
 10
0
 20
0
 30
0
 70
1
  0
VERTEX
  8
LAYER_1
 10
3.820000
 20
-0.932200
  0
VERTEX
  8
LAYER_1
 10
3.822000
 20
-0.929200
  0
SEQEND
  0
POLYLINE
  8
LAYER_1
 40
0.050000
 41
0.050000
 66
1
 10
0
 20
0
 30
0
 70
1
  0
VERTEX
  8
LAYER_1
 10
3.820000
 20
-0.932200
  0
VERTEX
  8
LAYER_1
 10
3.818000
 20
-0.936200
  0
SEQEND
  0
POLYLINE
  8
LAYER_1
 40
0.050000
 41
0.050000
 66
1
 10
0
 20
0
 30
0
 70
1
  0
VERTEX
  8
LAYER_1
 10
3.818000
 20
-0.936200
  0
VERTEX
  8
LAYER_1
 10
3.820000
 20
-0.932200
  0
SEQEND
  0
POLYLINE
  8
LAYER_1
 40
0.050000
 41
0.050000
 66
1
 10
0
 20
0
 30
0
 70
1
  0
VERTEX
  8
LAYER_1
 10
3.818000
 20
-0.936200
  0
VERTEX
  8
LAYER_1
 10
3.817000
 20
-0.939200
  0
SEQEND
  0
POLYLINE
  8
LAYER_1
 40
0.050000
 41
0.050000
 66
1
 10
0
 20
0
 30
0
 70
1
  0
VERTEX
  8
LAYER_1
 10
3.817000
 20
-0.939200
  0
VERTEX
  8
LAYER_1
 10
3.818000
 20
-0.936200
  0
SEQEND
  0
POLYLINE
  8
LAYER_1
 40
0.050000
 41
0.050000
 66
1
 10
0
 20
0
 30
0
 70
1
  0
VERTEX
  8
LAYER_1
 10
3.817000
 20
-0.939200
  0
VERTEX
  8
LAYER_1
 10
3.816000
 20
-0.943200
  0
SEQEND
  0
POLYLINE
  8
LAYER_1
 40
0.050000
 41
0.050000
 66
1
 10
0
 20
0
 30
0
 70
1
  0
VERTEX
  8
LAYER_1
 10
3.816000
 20
-0.943200
  0
VERTEX
  8
LAYER_1
 10
3.817000
 20
-0.939200
  0
SEQEND
  0
POLYLINE
  8
LAYER_1
 40
0.050000
 41
0.050000
 66
1
 10
0
 20
0
 30
0
 70
1
  0
VERTEX
  8
LAYER_1
 10
3.816000
 20
-0.943200
  0
VERTEX
  8
LAYER_1
 10
3.815000
 20
-0.947200
  0
SEQEND
  0
POLYLINE
  8
LAYER_1
 40
0.050000
 41
0.050000
 66
1
 10
0
 20
0
 30
0
 70
1
  0
VERTEX
  8
LAYER_1
 10
3.815000
 20
-0.947200
  0
VERTEX
  8
LAYER_1
 10
3.816000
 20
-0.943200
  0
SEQEND
  0
POLYLINE
  8
LAYER_1
 40
0.050000
 41
0.050000
 66
1
 10
0
 20
0
 30
0
 70
1
  0
VERTEX
  8
LAYER_1
 10
3.815000
 20
-0.947200
  0
VERTEX
  8
LAYER_1
 10
3.815000
 20
-0.951200
  0
SEQEND
  0
POLYLINE
  8
LAYER_1
 40
0.050000
 41
0.050000
 66
1
 10
0
 20
0
 30
0
 70
1
  0
VERTEX
  8
LAYER_1
 10
3.815000
 20
-0.951200
  0
VERTEX
  8
LAYER_1
 10
3.815000
 20
-0.947200
  0
SEQEND
  0
ENDBLK
  0
BLOCK
  8
LAYER_1
  2
AIGNBL01020017
 70
64
 10
0
 20
0
 30
0
  3
AIGNBL01020017
  0
POLYLINE
  8
LAYER_1
 40
0.050000
 41
0.050000
 66
1
 10
0
 20
0
 30
0
 70
1
  0
VERTEX
  8
LAYER_1
 10
3.913000
 20
-0.912200
  0
VERTEX
  8
LAYER_1
 10
3.854000
 20
-0.912200
  0
SEQEND
  0
POLYLINE
  8
LAYER_1
 40
0.050000
 41
0.050000
 66
1
 10
0
 20
0
 30
0
 70
1
  0
VERTEX
  8
LAYER_1
 10
3.854000
 20
-0.912200
  0
VERTEX
  8
LAYER_1
 10
3.913000
 20
-0.912200
  0
SEQEND
  0
ENDBLK
  0
BLOCK
  8
LAYER_1
  2
AIGNBL01020018
 70
64
 10
0
 20
0
 30
0
  3
AIGNBL01020018
  0
POLYLINE
  8
LAYER_1
 40
0.050000
 41
0.050000
 66
1
 10
0
 20
0
 30
0
 70
1
  0
VERTEX
  8
LAYER_1
 10
2.070000
 20
-0.794200
  0
VERTEX
  8
LAYER_1
 10
2.128000
 20
-0.794200
  0
SEQEND
  0
POLYLINE
  8
LAYER_1
 40
0.050000
 41
0.050000
 66
1
 10
0
 20
0
 30
0
 70
1
  0
VERTEX
  8
LAYER_1
 10
2.128000
 20
-0.794200
  0
VERTEX
  8
LAYER_1
 10
2.070000
 20
-0.794200
  0
SEQEND
  0
ENDBLK
  0
BLOCK
  8
LAYER_1
  2
AIGNBL01020019
 70
64
 10
0
 20
0
 30
0
  3
AIGNBL01020019
  0
POLYLINE
  8
LAYER_1
 40
0.050000
 41
0.050000
 66
1
 10
0
 20
0
 30
0
 70
1
  0
VERTEX
  8
LAYER_1
 10
3.913000
 20
-0.794200
  0
VERTEX
  8
LAYER_1
 10
3.854000
 20
-0.794200
  0
SEQEND
  0
POLYLINE
  8
LAYER_1
 40
0.050000
 41
0.050000
 66
1
 10
0
 20
0
 30
0
 70
1
  0
VERTEX
  8
LAYER_1
 10
3.854000
 20
-0.794200
  0
VERTEX
  8
LAYER_1
 10
3.913000
 20
-0.794200
  0
SEQEND
  0
ENDBLK
  0
BLOCK
  8
LAYER_1
  2
AIGNBL0102001A
 70
64
 10
0
 20
0
 30
0
  3
AIGNBL0102001A
  0
POLYLINE
  8
LAYER_1
 40
0.050000
 41
0.050000
 66
1
 10
0
 20
0
 30
0
 70
1
  0
VERTEX
  8
LAYER_1
 10
2.070000
 20
-0.912200
  0
VERTEX
  8
LAYER_1
 10
2.128000
 20
-0.912200
  0
SEQEND
  0
POLYLINE
  8
LAYER_1
 40
0.050000
 41
0.050000
 66
1
 10
0
 20
0
 30
0
 70
1
  0
VERTEX
  8
LAYER_1
 10
2.128000
 20
-0.912200
  0
VERTEX
  8
LAYER_1
 10
2.070000
 20
-0.912200
  0
SEQEND
  0
ENDBLK
  0
BLOCK
  8
LAYER_1
  2
AIGNBL0102001C
 70
64
 10
0
 20
0
 30
0
  3
AIGNBL0102001C
  0
POLYLINE
  8
LAYER_1
 40
0.050000
 41
0.050000
 66
1
 10
0
 20
0
 30
0
 70
1
  0
VERTEX
  8
LAYER_1
 10
4.200000
 20
-0.421200
  0
VERTEX
  8
LAYER_1
 10
4.216000
 20
-0.422200
  0
SEQEND
  0
POLYLINE
  8
LAYER_1
 40
0.050000
 41
0.050000
 66
1
 10
0
 20
0
 30
0
 70
1
  0
VERTEX
  8
LAYER_1
 10
4.216000
 20
-0.422200
  0
VERTEX
  8
LAYER_1
 10
4.200000
 20
-0.421200
  0
SEQEND
  0
POLYLINE
  8
LAYER_1
 40
0.050000
 41
0.050000
 66
1
 10
0
 20
0
 30
0
 70
1
  0
VERTEX
  8
LAYER_1
 10
4.216000
 20
-0.422200
  0
VERTEX
  8
LAYER_1
 10
4.232000
 20
-0.424200
  0
SEQEND
  0
POLYLINE
  8
LAYER_1
 40
0.050000
 41
0.050000
 66
1
 10
0
 20
0
 30
0
 70
1
  0
VERTEX
  8
LAYER_1
 10
4.232000
 20
-0.424200
  0
VERTEX
  8
LAYER_1
 10
4.216000
 20
-0.422200
  0
SEQEND
  0
POLYLINE
  8
LAYER_1
 40
0.050000
 41
0.050000
 66
1
 10
0
 20
0
 30
0
 70
1
  0
VERTEX
  8
LAYER_1
 10
4.232000
 20
-0.424200
  0
VERTEX
  8
LAYER_1
 10
4.247000
 20
-0.428200
  0
SEQEND
  0
POLYLINE
  8
LAYER_1
 40
0.050000
 41
0.050000
 66
1
 10
0
 20
0
 30
0
 70
1
  0
VERTEX
  8
LAYER_1
 10
4.247000
 20
-0.428200
  0
VERTEX
  8
LAYER_1
 10
4.232000
 20
-0.424200
  0
SEQEND
  0
POLYLINE
  8
LAYER_1
 40
0.050000
 41
0.050000
 66
1
 10
0
 20
0
 30
0
 70
1
  0
VERTEX
  8
LAYER_1
 10
4.247000
 20
-0.428200
  0
VERTEX
  8
LAYER_1
 10
4.262000
 20
-0.432200
  0
SEQEND
  0
POLYLINE
  8
LAYER_1
 40
0.050000
 41
0.050000
 66
1
 10
0
 20
0
 30
0
 70
1
  0
VERTEX
  8
LAYER_1
 10
4.262000
 20
-0.432200
  0
VERTEX
  8
LAYER_1
 10
4.247000
 20
-0.428200
  0
SEQEND
  0
POLYLINE
  8
LAYER_1
 40
0.050000
 41
0.050000
 66
1
 10
0
 20
0
 30
0
 70
1
  0
VERTEX
  8
LAYER_1
 10
4.262000
 20
-0.432200
  0
VERTEX
  8
LAYER_1
 10
4.276000
 20
-0.438200
  0
SEQEND
  0
POLYLINE
  8
LAYER_1
 40
0.050000
 41
0.050000
 66
1
 10
0
 20
0
 30
0
 70
1
  0
VERTEX
  8
LAYER_1
 10
4.276000
 20
-0.438200
  0
VERTEX
  8
LAYER_1
 10
4.262000
 20
-0.432200
  0
SEQEND
  0
POLYLINE
  8
LAYER_1
 40
0.050000
 41
0.050000
 66
1
 10
0
 20
0
 30
0
 70
1
  0
VERTEX
  8
LAYER_1
 10
4.276000
 20
-0.438200
  0
VERTEX
  8
LAYER_1
 10
4.289000
 20
-0.445200
  0
SEQEND
  0
POLYLINE
  8
LAYER_1
 40
0.050000
 41
0.050000
 66
1
 10
0
 20
0
 30
0
 70
1
  0
VERTEX
  8
LAYER_1
 10
4.289000
 20
-0.445200
  0
VERTEX
  8
LAYER_1
 10
4.276000
 20
-0.438200
  0
SEQEND
  0
POLYLINE
  8
LAYER_1
 40
0.050000
 41
0.050000
 66
1
 10
0
 20
0
 30
0
 70
1
  0
VERTEX
  8
LAYER_1
 10
4.289000
 20
-0.445200
  0
VERTEX
  8
LAYER_1
 10
4.302000
 20
-0.453200
  0
SEQEND
  0
POLYLINE
  8
LAYER_1
 40
0.050000
 41
0.050000
 66
1
 10
0
 20
0
 30
0
 70
1
  0
VERTEX
  8
LAYER_1
 10
4.302000
 20
-0.453200
  0
VERTEX
  8
LAYER_1
 10
4.289000
 20
-0.445200
  0
SEQEND
  0
POLYLINE
  8
LAYER_1
 40
0.050000
 41
0.050000
 66
1
 10
0
 20
0
 30
0
 70
1
  0
VERTEX
  8
LAYER_1
 10
4.302000
 20
-0.453200
  0
VERTEX
  8
LAYER_1
 10
4.313000
 20
-0.462200
  0
SEQEND
  0
POLYLINE
  8
LAYER_1
 40
0.050000
 41
0.050000
 66
1
 10
0
 20
0
 30
0
 70
1
  0
VERTEX
  8
LAYER_1
 10
4.313000
 20
-0.462200
  0
VERTEX
  8
LAYER_1
 10
4.302000
 20
-0.453200
  0
SEQEND
  0
POLYLINE
  8
LAYER_1
 40
0.050000
 41
0.050000
 66
1
 10
0
 20
0
 30
0
 70
1
  0
VERTEX
  8
LAYER_1
 10
4.313000
 20
-0.462200
  0
VERTEX
  8
LAYER_1
 10
4.324000
 20
-0.472200
  0
SEQEND
  0
POLYLINE
  8
LAYER_1
 40
0.050000
 41
0.050000
 66
1
 10
0
 20
0
 30
0
 70
1
  0
VERTEX
  8
LAYER_1
 10
4.324000
 20
-0.472200
  0
VERTEX
  8
LAYER_1
 10
4.313000
 20
-0.462200
  0
SEQEND
  0
POLYLINE
  8
LAYER_1
 40
0.050000
 41
0.050000
 66
1
 10
0
 20
0
 30
0
 70
1
  0
VERTEX
  8
LAYER_1
 10
4.324000
 20
-0.472200
  0
VERTEX
  8
LAYER_1
 10
4.333000
 20
-0.482200
  0
SEQEND
  0
POLYLINE
  8
LAYER_1
 40
0.050000
 41
0.050000
 66
1
 10
0
 20
0
 30
0
 70
1
  0
VERTEX
  8
LAYER_1
 10
4.333000
 20
-0.482200
  0
VERTEX
  8
LAYER_1
 10
4.324000
 20
-0.472200
  0
SEQEND
  0
POLYLINE
  8
LAYER_1
 40
0.050000
 41
0.050000
 66
1
 10
0
 20
0
 30
0
 70
1
  0
VERTEX
  8
LAYER_1
 10
4.333000
 20
-0.482200
  0
VERTEX
  8
LAYER_1
 10
4.341000
 20
-0.494200
  0
SEQEND
  0
POLYLINE
  8
LAYER_1
 40
0.050000
 41
0.050000
 66
1
 10
0
 20
0
 30
0
 70
1
  0
VERTEX
  8
LAYER_1
 10
4.341000
 20
-0.494200
  0
VERTEX
  8
LAYER_1
 10
4.333000
 20
-0.482200
  0
SEQEND
  0
POLYLINE
  8
LAYER_1
 40
0.050000
 41
0.050000
 66
1
 10
0
 20
0
 30
0
 70
1
  0
VERTEX
  8
LAYER_1
 10
4.341000
 20
-0.494200
  0
VERTEX
  8
LAYER_1
 10
4.348000
 20
-0.506200
  0
SEQEND
  0
POLYLINE
  8
LAYER_1
 40
0.050000
 41
0.050000
 66
1
 10
0
 20
0
 30
0
 70
1
  0
VERTEX
  8
LAYER_1
 10
4.348000
 20
-0.506200
  0
VERTEX
  8
LAYER_1
 10
4.341000
 20
-0.494200
  0
SEQEND
  0
POLYLINE
  8
LAYER_1
 40
0.050000
 41
0.050000
 66
1
 10
0
 20
0
 30
0
 70
1
  0
VERTEX
  8
LAYER_1
 10
4.348000
 20
-0.506200
  0
VERTEX
  8
LAYER_1
 10
4.353000
 20
-0.518200
  0
SEQEND
  0
POLYLINE
  8
LAYER_1
 40
0.050000
 41
0.050000
 66
1
 10
0
 20
0
 30
0
 70
1
  0
VERTEX
  8
LAYER_1
 10
4.353000
 20
-0.518200
  0
VERTEX
  8
LAYER_1
 10
4.348000
 20
-0.506200
  0
SEQEND
  0
POLYLINE
  8
LAYER_1
 40
0.050000
 41
0.050000
 66
1
 10
0
 20
0
 30
0
 70
1
  0
VERTEX
  8
LAYER_1
 10
4.353000
 20
-0.518200
  0
VERTEX
  8
LAYER_1
 10
4.357000
 20
-0.531200
  0
SEQEND
  0
POLYLINE
  8
LAYER_1
 40
0.050000
 41
0.050000
 66
1
 10
0
 20
0
 30
0
 70
1
  0
VERTEX
  8
LAYER_1
 10
4.357000
 20
-0.531200
  0
VERTEX
  8
LAYER_1
 10
4.353000
 20
-0.518200
  0
SEQEND
  0
POLYLINE
  8
LAYER_1
 40
0.050000
 41
0.050000
 66
1
 10
0
 20
0
 30
0
 70
1
  0
VERTEX
  8
LAYER_1
 10
4.357000
 20
-0.531200
  0
VERTEX
  8
LAYER_1
 10
4.359000
 20
-0.545200
  0
SEQEND
  0
POLYLINE
  8
LAYER_1
 40
0.050000
 41
0.050000
 66
1
 10
0
 20
0
 30
0
 70
1
  0
VERTEX
  8
LAYER_1
 10
4.359000
 20
-0.545200
  0
VERTEX
  8
LAYER_1
 10
4.357000
 20
-0.531200
  0
SEQEND
  0
POLYLINE
  8
LAYER_1
 40
0.050000
 41
0.050000
 66
1
 10
0
 20
0
 30
0
 70
1
  0
VERTEX
  8
LAYER_1
 10
4.359000
 20
-0.545200
  0
VERTEX
  8
LAYER_1
 10
4.360000
 20
-0.559200
  0
SEQEND
  0
POLYLINE
  8
LAYER_1
 40
0.050000
 41
0.050000
 66
1
 10
0
 20
0
 30
0
 70
1
  0
VERTEX
  8
LAYER_1
 10
4.360000
 20
-0.559200
  0
VERTEX
  8
LAYER_1
 10
4.359000
 20
-0.545200
  0
SEQEND
  0
ENDBLK
  0
BLOCK
  8
LAYER_1
  2
AIGNBL0102001D
 70
64
 10
0
 20
0
 30
0
  3
AIGNBL0102001D
  0
POLYLINE
  8
LAYER_1
 40
0.050000
 41
0.050000
 66
1
 10
0
 20
0
 30
0
 70
1
  0
VERTEX
  8
LAYER_1
 10
4.360000
 20
-0.559200
  0
VERTEX
  8
LAYER_1
 10
4.360000
 20
-1.144200
  0
SEQEND
  0
POLYLINE
  8
LAYER_1
 40
0.050000
 41
0.050000
 66
1
 10
0
 20
0
 30
0
 70
1
  0
VERTEX
  8
LAYER_1
 10
4.360000
 20
-1.144200
  0
VERTEX
  8
LAYER_1
 10
4.360000
 20
-0.559200
  0
SEQEND
  0
ENDBLK
  0
BLOCK
  8
LAYER_1
  2
AIGNBL0102001E
 70
64
 10
0
 20
0
 30
0
  3
AIGNBL0102001E
  0
POLYLINE
  8
LAYER_1
 40
0.050000
 41
0.050000
 66
1
 10
0
 20
0
 30
0
 70
1
  0
VERTEX
  8
LAYER_1
 10
4.200000
 20
-1.282200
  0
VERTEX
  8
LAYER_1
 10
4.216000
 20
-1.281200
  0
SEQEND
  0
POLYLINE
  8
LAYER_1
 40
0.050000
 41
0.050000
 66
1
 10
0
 20
0
 30
0
 70
1
  0
VERTEX
  8
LAYER_1
 10
4.216000
 20
-1.281200
  0
VERTEX
  8
LAYER_1
 10
4.200000
 20
-1.282200
  0
SEQEND
  0
POLYLINE
  8
LAYER_1
 40
0.050000
 41
0.050000
 66
1
 10
0
 20
0
 30
0
 70
1
  0
VERTEX
  8
LAYER_1
 10
4.216000
 20
-1.281200
  0
VERTEX
  8
LAYER_1
 10
4.232000
 20
-1.279200
  0
SEQEND
  0
POLYLINE
  8
LAYER_1
 40
0.050000
 41
0.050000
 66
1
 10
0
 20
0
 30
0
 70
1
  0
VERTEX
  8
LAYER_1
 10
4.232000
 20
-1.279200
  0
VERTEX
  8
LAYER_1
 10
4.216000
 20
-1.281200
  0
SEQEND
  0
POLYLINE
  8
LAYER_1
 40
0.050000
 41
0.050000
 66
1
 10
0
 20
0
 30
0
 70
1
  0
VERTEX
  8
LAYER_1
 10
4.232000
 20
-1.279200
  0
VERTEX
  8
LAYER_1
 10
4.247000
 20
-1.275200
  0
SEQEND
  0
POLYLINE
  8
LAYER_1
 40
0.050000
 41
0.050000
 66
1
 10
0
 20
0
 30
0
 70
1
  0
VERTEX
  8
LAYER_1
 10
4.247000
 20
-1.275200
  0
VERTEX
  8
LAYER_1
 10
4.232000
 20
-1.279200
  0
SEQEND
  0
POLYLINE
  8
LAYER_1
 40
0.050000
 41
0.050000
 66
1
 10
0
 20
0
 30
0
 70
1
  0
VERTEX
  8
LAYER_1
 10
4.247000
 20
-1.275200
  0
VERTEX
  8
LAYER_1
 10
4.262000
 20
-1.271200
  0
SEQEND
  0
POLYLINE
  8
LAYER_1
 40
0.050000
 41
0.050000
 66
1
 10
0
 20
0
 30
0
 70
1
  0
VERTEX
  8
LAYER_1
 10
4.262000
 20
-1.271200
  0
VERTEX
  8
LAYER_1
 10
4.247000
 20
-1.275200
  0
SEQEND
  0
POLYLINE
  8
LAYER_1
 40
0.050000
 41
0.050000
 66
1
 10
0
 20
0
 30
0
 70
1
  0
VERTEX
  8
LAYER_1
 10
4.262000
 20
-1.271200
  0
VERTEX
  8
LAYER_1
 10
4.276000
 20
-1.265200
  0
SEQEND
  0
POLYLINE
  8
LAYER_1
 40
0.050000
 41
0.050000
 66
1
 10
0
 20
0
 30
0
 70
1
  0
VERTEX
  8
LAYER_1
 10
4.276000
 20
-1.265200
  0
VERTEX
  8
LAYER_1
 10
4.262000
 20
-1.271200
  0
SEQEND
  0
POLYLINE
  8
LAYER_1
 40
0.050000
 41
0.050000
 66
1
 10
0
 20
0
 30
0
 70
1
  0
VERTEX
  8
LAYER_1
 10
4.276000
 20
-1.265200
  0
VERTEX
  8
LAYER_1
 10
4.289000
 20
-1.258200
  0
SEQEND
  0
POLYLINE
  8
LAYER_1
 40
0.050000
 41
0.050000
 66
1
 10
0
 20
0
 30
0
 70
1
  0
VERTEX
  8
LAYER_1
 10
4.289000
 20
-1.258200
  0
VERTEX
  8
LAYER_1
 10
4.276000
 20
-1.265200
  0
SEQEND
  0
POLYLINE
  8
LAYER_1
 40
0.050000
 41
0.050000
 66
1
 10
0
 20
0
 30
0
 70
1
  0
VERTEX
  8
LAYER_1
 10
4.289000
 20
-1.258200
  0
VERTEX
  8
LAYER_1
 10
4.302000
 20
-1.250200
  0
SEQEND
  0
POLYLINE
  8
LAYER_1
 40
0.050000
 41
0.050000
 66
1
 10
0
 20
0
 30
0
 70
1
  0
VERTEX
  8
LAYER_1
 10
4.302000
 20
-1.250200
  0
VERTEX
  8
LAYER_1
 10
4.289000
 20
-1.258200
  0
SEQEND
  0
POLYLINE
  8
LAYER_1
 40
0.050000
 41
0.050000
 66
1
 10
0
 20
0
 30
0
 70
1
  0
VERTEX
  8
LAYER_1
 10
4.302000
 20
-1.250200
  0
VERTEX
  8
LAYER_1
 10
4.313000
 20
-1.241200
  0
SEQEND
  0
POLYLINE
  8
LAYER_1
 40
0.050000
 41
0.050000
 66
1
 10
0
 20
0
 30
0
 70
1
  0
VERTEX
  8
LAYER_1
 10
4.313000
 20
-1.241200
  0
VERTEX
  8
LAYER_1
 10
4.302000
 20
-1.250200
  0
SEQEND
  0
POLYLINE
  8
LAYER_1
 40
0.050000
 41
0.050000
 66
1
 10
0
 20
0
 30
0
 70
1
  0
VERTEX
  8
LAYER_1
 10
4.313000
 20
-1.241200
  0
VERTEX
  8
LAYER_1
 10
4.324000
 20
-1.232200
  0
SEQEND
  0
POLYLINE
  8
LAYER_1
 40
0.050000
 41
0.050000
 66
1
 10
0
 20
0
 30
0
 70
1
  0
VERTEX
  8
LAYER_1
 10
4.324000
 20
-1.232200
  0
VERTEX
  8
LAYER_1
 10
4.313000
 20
-1.241200
  0
SEQEND
  0
POLYLINE
  8
LAYER_1
 40
0.050000
 41
0.050000
 66
1
 10
0
 20
0
 30
0
 70
1
  0
VERTEX
  8
LAYER_1
 10
4.324000
 20
-1.232200
  0
VERTEX
  8
LAYER_1
 10
4.333000
 20
-1.221200
  0
SEQEND
  0
POLYLINE
  8
LAYER_1
 40
0.050000
 41
0.050000
 66
1
 10
0
 20
0
 30
0
 70
1
  0
VERTEX
  8
LAYER_1
 10
4.333000
 20
-1.221200
  0
VERTEX
  8
LAYER_1
 10
4.324000
 20
-1.232200
  0
SEQEND
  0
POLYLINE
  8
LAYER_1
 40
0.050000
 41
0.050000
 66
1
 10
0
 20
0
 30
0
 70
1
  0
VERTEX
  8
LAYER_1
 10
4.333000
 20
-1.221200
  0
VERTEX
  8
LAYER_1
 10
4.341000
 20
-1.210200
  0
SEQEND
  0
POLYLINE
  8
LAYER_1
 40
0.050000
 41
0.050000
 66
1
 10
0
 20
0
 30
0
 70
1
  0
VERTEX
  8
LAYER_1
 10
4.341000
 20
-1.210200
  0
VERTEX
  8
LAYER_1
 10
4.333000
 20
-1.221200
  0
SEQEND
  0
POLYLINE
  8
LAYER_1
 40
0.050000
 41
0.050000
 66
1
 10
0
 20
0
 30
0
 70
1
  0
VERTEX
  8
LAYER_1
 10
4.341000
 20
-1.210200
  0
VERTEX
  8
LAYER_1
 10
4.348000
 20
-1.198200
  0
SEQEND
  0
POLYLINE
  8
LAYER_1
 40
0.050000
 41
0.050000
 66
1
 10
0
 20
0
 30
0
 70
1
  0
VERTEX
  8
LAYER_1
 10
4.348000
 20
-1.198200
  0
VERTEX
  8
LAYER_1
 10
4.341000
 20
-1.210200
  0
SEQEND
  0
POLYLINE
  8
LAYER_1
 40
0.050000
 41
0.050000
 66
1
 10
0
 20
0
 30
0
 70
1
  0
VERTEX
  8
LAYER_1
 10
4.348000
 20
-1.198200
  0
VERTEX
  8
LAYER_1
 10
4.353000
 20
-1.185200
  0
SEQEND
  0
POLYLINE
  8
LAYER_1
 40
0.050000
 41
0.050000
 66
1
 10
0
 20
0
 30
0
 70
1
  0
VERTEX
  8
LAYER_1
 10
4.353000
 20
-1.185200
  0
VERTEX
  8
LAYER_1
 10
4.348000
 20
-1.198200
  0
SEQEND
  0
POLYLINE
  8
LAYER_1
 40
0.050000
 41
0.050000
 66
1
 10
0
 20
0
 30
0
 70
1
  0
VERTEX
  8
LAYER_1
 10
4.353000
 20
-1.185200
  0
VERTEX
  8
LAYER_1
 10
4.357000
 20
-1.172200
  0
SEQEND
  0
POLYLINE
  8
LAYER_1
 40
0.050000
 41
0.050000
 66
1
 10
0
 20
0
 30
0
 70
1
  0
VERTEX
  8
LAYER_1
 10
4.357000
 20
-1.172200
  0
VERTEX
  8
LAYER_1
 10
4.353000
 20
-1.185200
  0
SEQEND
  0
POLYLINE
  8
LAYER_1
 40
0.050000
 41
0.050000
 66
1
 10
0
 20
0
 30
0
 70
1
  0
VERTEX
  8
LAYER_1
 10
4.357000
 20
-1.172200
  0
VERTEX
  8
LAYER_1
 10
4.359000
 20
-1.158200
  0
SEQEND
  0
POLYLINE
  8
LAYER_1
 40
0.050000
 41
0.050000
 66
1
 10
0
 20
0
 30
0
 70
1
  0
VERTEX
  8
LAYER_1
 10
4.359000
 20
-1.158200
  0
VERTEX
  8
LAYER_1
 10
4.357000
 20
-1.172200
  0
SEQEND
  0
POLYLINE
  8
LAYER_1
 40
0.050000
 41
0.050000
 66
1
 10
0
 20
0
 30
0
 70
1
  0
VERTEX
  8
LAYER_1
 10
4.359000
 20
-1.158200
  0
VERTEX
  8
LAYER_1
 10
4.360000
 20
-1.144200
  0
SEQEND
  0
POLYLINE
  8
LAYER_1
 40
0.050000
 41
0.050000
 66
1
 10
0
 20
0
 30
0
 70
1
  0
VERTEX
  8
LAYER_1
 10
4.360000
 20
-1.144200
  0
VERTEX
  8
LAYER_1
 10
4.359000
 20
-1.158200
  0
SEQEND
  0
ENDBLK
  0
BLOCK
  8
LAYER_1
  2
AIGNBL0102001F
 70
64
 10
0
 20
0
 30
0
  3
AIGNBL0102001F
  0
POLYLINE
  8
LAYER_1
 40
0.050000
 41
0.050000
 66
1
 10
0
 20
0
 30
0
 70
1
  0
VERTEX
  8
LAYER_1
 10
1.792000
 20
-1.282200
  0
VERTEX
  8
LAYER_1
 10
4.200000
 20
-1.282200
  0
SEQEND
  0
POLYLINE
  8
LAYER_1
 40
0.050000
 41
0.050000
 66
1
 10
0
 20
0
 30
0
 70
1
  0
VERTEX
  8
LAYER_1
 10
4.200000
 20
-1.282200
  0
VERTEX
  8
LAYER_1
 10
1.792000
 20
-1.282200
  0
SEQEND
  0
ENDBLK
  0
BLOCK
  8
LAYER_1
  2
AIGNBL01020020
 70
64
 10
0
 20
0
 30
0
  3
AIGNBL01020020
  0
POLYLINE
  8
LAYER_1
 40
0.050000
 41
0.050000
 66
1
 10
0
 20
0
 30
0
 70
1
  0
VERTEX
  8
LAYER_1
 10
1.792000
 20
-1.282200
  0
VERTEX
  8
LAYER_1
 10
1.775000
 20
-1.281200
  0
SEQEND
  0
POLYLINE
  8
LAYER_1
 40
0.050000
 41
0.050000
 66
1
 10
0
 20
0
 30
0
 70
1
  0
VERTEX
  8
LAYER_1
 10
1.775000
 20
-1.281200
  0
VERTEX
  8
LAYER_1
 10
1.792000
 20
-1.282200
  0
SEQEND
  0
POLYLINE
  8
LAYER_1
 40
0.050000
 41
0.050000
 66
1
 10
0
 20
0
 30
0
 70
1
  0
VERTEX
  8
LAYER_1
 10
1.775000
 20
-1.281200
  0
VERTEX
  8
LAYER_1
 10
1.759000
 20
-1.279200
  0
SEQEND
  0
POLYLINE
  8
LAYER_1
 40
0.050000
 41
0.050000
 66
1
 10
0
 20
0
 30
0
 70
1
  0
VERTEX
  8
LAYER_1
 10
1.759000
 20
-1.279200
  0
VERTEX
  8
LAYER_1
 10
1.775000
 20
-1.281200
  0
SEQEND
  0
POLYLINE
  8
LAYER_1
 40
0.050000
 41
0.050000
 66
1
 10
0
 20
0
 30
0
 70
1
  0
VERTEX
  8
LAYER_1
 10
1.759000
 20
-1.279200
  0
VERTEX
  8
LAYER_1
 10
1.744000
 20
-1.275200
  0
SEQEND
  0
POLYLINE
  8
LAYER_1
 40
0.050000
 41
0.050000
 66
1
 10
0
 20
0
 30
0
 70
1
  0
VERTEX
  8
LAYER_1
 10
1.744000
 20
-1.275200
  0
VERTEX
  8
LAYER_1
 10
1.759000
 20
-1.279200
  0
SEQEND
  0
POLYLINE
  8
LAYER_1
 40
0.050000
 41
0.050000
 66
1
 10
0
 20
0
 30
0
 70
1
  0
VERTEX
  8
LAYER_1
 10
1.744000
 20
-1.275200
  0
VERTEX
  8
LAYER_1
 10
1.729000
 20
-1.271200
  0
SEQEND
  0
POLYLINE
  8
LAYER_1
 40
0.050000
 41
0.050000
 66
1
 10
0
 20
0
 30
0
 70
1
  0
VERTEX
  8
LAYER_1
 10
1.729000
 20
-1.271200
  0
VERTEX
  8
LAYER_1
 10
1.744000
 20
-1.275200
  0
SEQEND
  0
POLYLINE
  8
LAYER_1
 40
0.050000
 41
0.050000
 66
1
 10
0
 20
0
 30
0
 70
1
  0
VERTEX
  8
LAYER_1
 10
1.729000
 20
-1.271200
  0
VERTEX
  8
LAYER_1
 10
1.715000
 20
-1.265200
  0
SEQEND
  0
POLYLINE
  8
LAYER_1
 40
0.050000
 41
0.050000
 66
1
 10
0
 20
0
 30
0
 70
1
  0
VERTEX
  8
LAYER_1
 10
1.715000
 20
-1.265200
  0
VERTEX
  8
LAYER_1
 10
1.729000
 20
-1.271200
  0
SEQEND
  0
POLYLINE
  8
LAYER_1
 40
0.050000
 41
0.050000
 66
1
 10
0
 20
0
 30
0
 70
1
  0
VERTEX
  8
LAYER_1
 10
1.715000
 20
-1.265200
  0
VERTEX
  8
LAYER_1
 10
1.702000
 20
-1.258200
  0
SEQEND
  0
POLYLINE
  8
LAYER_1
 40
0.050000
 41
0.050000
 66
1
 10
0
 20
0
 30
0
 70
1
  0
VERTEX
  8
LAYER_1
 10
1.702000
 20
-1.258200
  0
VERTEX
  8
LAYER_1
 10
1.715000
 20
-1.265200
  0
SEQEND
  0
POLYLINE
  8
LAYER_1
 40
0.050000
 41
0.050000
 66
1
 10
0
 20
0
 30
0
 70
1
  0
VERTEX
  8
LAYER_1
 10
1.702000
 20
-1.258200
  0
VERTEX
  8
LAYER_1
 10
1.690000
 20
-1.250200
  0
SEQEND
  0
POLYLINE
  8
LAYER_1
 40
0.050000
 41
0.050000
 66
1
 10
0
 20
0
 30
0
 70
1
  0
VERTEX
  8
LAYER_1
 10
1.690000
 20
-1.250200
  0
VERTEX
  8
LAYER_1
 10
1.702000
 20
-1.258200
  0
SEQEND
  0
POLYLINE
  8
LAYER_1
 40
0.050000
 41
0.050000
 66
1
 10
0
 20
0
 30
0
 70
1
  0
VERTEX
  8
LAYER_1
 10
1.690000
 20
-1.250200
  0
VERTEX
  8
LAYER_1
 10
1.678000
 20
-1.241200
  0
SEQEND
  0
POLYLINE
  8
LAYER_1
 40
0.050000
 41
0.050000
 66
1
 10
0
 20
0
 30
0
 70
1
  0
VERTEX
  8
LAYER_1
 10
1.678000
 20
-1.241200
  0
VERTEX
  8
LAYER_1
 10
1.690000
 20
-1.250200
  0
SEQEND
  0
POLYLINE
  8
LAYER_1
 40
0.050000
 41
0.050000
 66
1
 10
0
 20
0
 30
0
 70
1
  0
VERTEX
  8
LAYER_1
 10
1.678000
 20
-1.241200
  0
VERTEX
  8
LAYER_1
 10
1.668000
 20
-1.232200
  0
SEQEND
  0
POLYLINE
  8
LAYER_1
 40
0.050000
 41
0.050000
 66
1
 10
0
 20
0
 30
0
 70
1
  0
VERTEX
  8
LAYER_1
 10
1.668000
 20
-1.232200
  0
VERTEX
  8
LAYER_1
 10
1.678000
 20
-1.241200
  0
SEQEND
  0
POLYLINE
  8
LAYER_1
 40
0.050000
 41
0.050000
 66
1
 10
0
 20
0
 30
0
 70
1
  0
VERTEX
  8
LAYER_1
 10
1.668000
 20
-1.232200
  0
VERTEX
  8
LAYER_1
 10
1.659000
 20
-1.221200
  0
SEQEND
  0
POLYLINE
  8
LAYER_1
 40
0.050000
 41
0.050000
 66
1
 10
0
 20
0
 30
0
 70
1
  0
VERTEX
  8
LAYER_1
 10
1.659000
 20
-1.221200
  0
VERTEX
  8
LAYER_1
 10
1.668000
 20
-1.232200
  0
SEQEND
  0
POLYLINE
  8
LAYER_1
 40
0.050000
 41
0.050000
 66
1
 10
0
 20
0
 30
0
 70
1
  0
VERTEX
  8
LAYER_1
 10
1.659000
 20
-1.221200
  0
VERTEX
  8
LAYER_1
 10
1.650000
 20
-1.210200
  0
SEQEND
  0
POLYLINE
  8
LAYER_1
 40
0.050000
 41
0.050000
 66
1
 10
0
 20
0
 30
0
 70
1
  0
VERTEX
  8
LAYER_1
 10
1.650000
 20
-1.210200
  0
VERTEX
  8
LAYER_1
 10
1.659000
 20
-1.221200
  0
SEQEND
  0
POLYLINE
  8
LAYER_1
 40
0.050000
 41
0.050000
 66
1
 10
0
 20
0
 30
0
 70
1
  0
VERTEX
  8
LAYER_1
 10
1.650000
 20
-1.210200
  0
VERTEX
  8
LAYER_1
 10
1.644000
 20
-1.198200
  0
SEQEND
  0
POLYLINE
  8
LAYER_1
 40
0.050000
 41
0.050000
 66
1
 10
0
 20
0
 30
0
 70
1
  0
VERTEX
  8
LAYER_1
 10
1.644000
 20
-1.198200
  0
VERTEX
  8
LAYER_1
 10
1.650000
 20
-1.210200
  0
SEQEND
  0
POLYLINE
  8
LAYER_1
 40
0.050000
 41
0.050000
 66
1
 10
0
 20
0
 30
0
 70
1
  0
VERTEX
  8
LAYER_1
 10
1.644000
 20
-1.198200
  0
VERTEX
  8
LAYER_1
 10
1.638000
 20
-1.185200
  0
SEQEND
  0
POLYLINE
  8
LAYER_1
 40
0.050000
 41
0.050000
 66
1
 10
0
 20
0
 30
0
 70
1
  0
VERTEX
  8
LAYER_1
 10
1.638000
 20
-1.185200
  0
VERTEX
  8
LAYER_1
 10
1.644000
 20
-1.198200
  0
SEQEND
  0
POLYLINE
  8
LAYER_1
 40
0.050000
 41
0.050000
 66
1
 10
0
 20
0
 30
0
 70
1
  0
VERTEX
  8
LAYER_1
 10
1.638000
 20
-1.185200
  0
VERTEX
  8
LAYER_1
 10
1.634000
 20
-1.172200
  0
SEQEND
  0
POLYLINE
  8
LAYER_1
 40
0.050000
 41
0.050000
 66
1
 10
0
 20
0
 30
0
 70
1
  0
VERTEX
  8
LAYER_1
 10
1.634000
 20
-1.172200
  0
VERTEX
  8
LAYER_1
 10
1.638000
 20
-1.185200
  0
SEQEND
  0
POLYLINE
  8
LAYER_1
 40
0.050000
 41
0.050000
 66
1
 10
0
 20
0
 30
0
 70
1
  0
VERTEX
  8
LAYER_1
 10
1.634000
 20
-1.172200
  0
VERTEX
  8
LAYER_1
 10
1.632000
 20
-1.158200
  0
SEQEND
  0
POLYLINE
  8
LAYER_1
 40
0.050000
 41
0.050000
 66
1
 10
0
 20
0
 30
0
 70
1
  0
VERTEX
  8
LAYER_1
 10
1.632000
 20
-1.158200
  0
VERTEX
  8
LAYER_1
 10
1.634000
 20
-1.172200
  0
SEQEND
  0
POLYLINE
  8
LAYER_1
 40
0.050000
 41
0.050000
 66
1
 10
0
 20
0
 30
0
 70
1
  0
VERTEX
  8
LAYER_1
 10
1.632000
 20
-1.158200
  0
VERTEX
  8
LAYER_1
 10
1.631000
 20
-1.144200
  0
SEQEND
  0
POLYLINE
  8
LAYER_1
 40
0.050000
 41
0.050000
 66
1
 10
0
 20
0
 30
0
 70
1
  0
VERTEX
  8
LAYER_1
 10
1.631000
 20
-1.144200
  0
VERTEX
  8
LAYER_1
 10
1.632000
 20
-1.158200
  0
SEQEND
  0
ENDBLK
  0
BLOCK
  8
LAYER_1
  2
AIGNBL01020021
 70
64
 10
0
 20
0
 30
0
  3
AIGNBL01020021
  0
POLYLINE
  8
LAYER_1
 40
0.050000
 41
0.050000
 66
1
 10
0
 20
0
 30
0
 70
1
  0
VERTEX
  8
LAYER_1
 10
1.631000
 20
-0.559200
  0
VERTEX
  8
LAYER_1
 10
1.631000
 20
-1.144200
  0
SEQEND
  0
POLYLINE
  8
LAYER_1
 40
0.050000
 41
0.050000
 66
1
 10
0
 20
0
 30
0
 70
1
  0
VERTEX
  8
LAYER_1
 10
1.631000
 20
-1.144200
  0
VERTEX
  8
LAYER_1
 10
1.631000
 20
-0.559200
  0
SEQEND
  0
ENDBLK
  0
BLOCK
  8
LAYER_1
  2
AIGNBL01020022
 70
64
 10
0
 20
0
 30
0
  3
AIGNBL01020022
  0
POLYLINE
  8
LAYER_1
 40
0.050000
 41
0.050000
 66
1
 10
0
 20
0
 30
0
 70
1
  0
VERTEX
  8
LAYER_1
 10
1.792000
 20
-0.421200
  0
VERTEX
  8
LAYER_1
 10
1.775000
 20
-0.422200
  0
SEQEND
  0
POLYLINE
  8
LAYER_1
 40
0.050000
 41
0.050000
 66
1
 10
0
 20
0
 30
0
 70
1
  0
VERTEX
  8
LAYER_1
 10
1.775000
 20
-0.422200
  0
VERTEX
  8
LAYER_1
 10
1.792000
 20
-0.421200
  0
SEQEND
  0
POLYLINE
  8
LAYER_1
 40
0.050000
 41
0.050000
 66
1
 10
0
 20
0
 30
0
 70
1
  0
VERTEX
  8
LAYER_1
 10
1.775000
 20
-0.422200
  0
VERTEX
  8
LAYER_1
 10
1.759000
 20
-0.424200
  0
SEQEND
  0
POLYLINE
  8
LAYER_1
 40
0.050000
 41
0.050000
 66
1
 10
0
 20
0
 30
0
 70
1
  0
VERTEX
  8
LAYER_1
 10
1.759000
 20
-0.424200
  0
VERTEX
  8
LAYER_1
 10
1.775000
 20
-0.422200
  0
SEQEND
  0
POLYLINE
  8
LAYER_1
 40
0.050000
 41
0.050000
 66
1
 10
0
 20
0
 30
0
 70
1
  0
VERTEX
  8
LAYER_1
 10
1.759000
 20
-0.424200
  0
VERTEX
  8
LAYER_1
 10
1.744000
 20
-0.428200
  0
SEQEND
  0
POLYLINE
  8
LAYER_1
 40
0.050000
 41
0.050000
 66
1
 10
0
 20
0
 30
0
 70
1
  0
VERTEX
  8
LAYER_1
 10
1.744000
 20
-0.428200
  0
VERTEX
  8
LAYER_1
 10
1.759000
 20
-0.424200
  0
SEQEND
  0
POLYLINE
  8
LAYER_1
 40
0.050000
 41
0.050000
 66
1
 10
0
 20
0
 30
0
 70
1
  0
VERTEX
  8
LAYER_1
 10
1.744000
 20
-0.428200
  0
VERTEX
  8
LAYER_1
 10
1.729000
 20
-0.432200
  0
SEQEND
  0
POLYLINE
  8
LAYER_1
 40
0.050000
 41
0.050000
 66
1
 10
0
 20
0
 30
0
 70
1
  0
VERTEX
  8
LAYER_1
 10
1.729000
 20
-0.432200
  0
VERTEX
  8
LAYER_1
 10
1.744000
 20
-0.428200
  0
SEQEND
  0
POLYLINE
  8
LAYER_1
 40
0.050000
 41
0.050000
 66
1
 10
0
 20
0
 30
0
 70
1
  0
VERTEX
  8
LAYER_1
 10
1.729000
 20
-0.432200
  0
VERTEX
  8
LAYER_1
 10
1.715000
 20
-0.438200
  0
SEQEND
  0
POLYLINE
  8
LAYER_1
 40
0.050000
 41
0.050000
 66
1
 10
0
 20
0
 30
0
 70
1
  0
VERTEX
  8
LAYER_1
 10
1.715000
 20
-0.438200
  0
VERTEX
  8
LAYER_1
 10
1.729000
 20
-0.432200
  0
SEQEND
  0
POLYLINE
  8
LAYER_1
 40
0.050000
 41
0.050000
 66
1
 10
0
 20
0
 30
0
 70
1
  0
VERTEX
  8
LAYER_1
 10
1.715000
 20
-0.438200
  0
VERTEX
  8
LAYER_1
 10
1.702000
 20
-0.445200
  0
SEQEND
  0
POLYLINE
  8
LAYER_1
 40
0.050000
 41
0.050000
 66
1
 10
0
 20
0
 30
0
 70
1
  0
VERTEX
  8
LAYER_1
 10
1.702000
 20
-0.445200
  0
VERTEX
  8
LAYER_1
 10
1.715000
 20
-0.438200
  0
SEQEND
  0
POLYLINE
  8
LAYER_1
 40
0.050000
 41
0.050000
 66
1
 10
0
 20
0
 30
0
 70
1
  0
VERTEX
  8
LAYER_1
 10
1.702000
 20
-0.445200
  0
VERTEX
  8
LAYER_1
 10
1.690000
 20
-0.453200
  0
SEQEND
  0
POLYLINE
  8
LAYER_1
 40
0.050000
 41
0.050000
 66
1
 10
0
 20
0
 30
0
 70
1
  0
VERTEX
  8
LAYER_1
 10
1.690000
 20
-0.453200
  0
VERTEX
  8
LAYER_1
 10
1.702000
 20
-0.445200
  0
SEQEND
  0
POLYLINE
  8
LAYER_1
 40
0.050000
 41
0.050000
 66
1
 10
0
 20
0
 30
0
 70
1
  0
VERTEX
  8
LAYER_1
 10
1.690000
 20
-0.453200
  0
VERTEX
  8
LAYER_1
 10
1.678000
 20
-0.462200
  0
SEQEND
  0
POLYLINE
  8
LAYER_1
 40
0.050000
 41
0.050000
 66
1
 10
0
 20
0
 30
0
 70
1
  0
VERTEX
  8
LAYER_1
 10
1.678000
 20
-0.462200
  0
VERTEX
  8
LAYER_1
 10
1.690000
 20
-0.453200
  0
SEQEND
  0
POLYLINE
  8
LAYER_1
 40
0.050000
 41
0.050000
 66
1
 10
0
 20
0
 30
0
 70
1
  0
VERTEX
  8
LAYER_1
 10
1.678000
 20
-0.462200
  0
VERTEX
  8
LAYER_1
 10
1.668000
 20
-0.472200
  0
SEQEND
  0
POLYLINE
  8
LAYER_1
 40
0.050000
 41
0.050000
 66
1
 10
0
 20
0
 30
0
 70
1
  0
VERTEX
  8
LAYER_1
 10
1.668000
 20
-0.472200
  0
VERTEX
  8
LAYER_1
 10
1.678000
 20
-0.462200
  0
SEQEND
  0
POLYLINE
  8
LAYER_1
 40
0.050000
 41
0.050000
 66
1
 10
0
 20
0
 30
0
 70
1
  0
VERTEX
  8
LAYER_1
 10
1.668000
 20
-0.472200
  0
VERTEX
  8
LAYER_1
 10
1.659000
 20
-0.482200
  0
SEQEND
  0
POLYLINE
  8
LAYER_1
 40
0.050000
 41
0.050000
 66
1
 10
0
 20
0
 30
0
 70
1
  0
VERTEX
  8
LAYER_1
 10
1.659000
 20
-0.482200
  0
VERTEX
  8
LAYER_1
 10
1.668000
 20
-0.472200
  0
SEQEND
  0
POLYLINE
  8
LAYER_1
 40
0.050000
 41
0.050000
 66
1
 10
0
 20
0
 30
0
 70
1
  0
VERTEX
  8
LAYER_1
 10
1.659000
 20
-0.482200
  0
VERTEX
  8
LAYER_1
 10
1.650000
 20
-0.494200
  0
SEQEND
  0
POLYLINE
  8
LAYER_1
 40
0.050000
 41
0.050000
 66
1
 10
0
 20
0
 30
0
 70
1
  0
VERTEX
  8
LAYER_1
 10
1.650000
 20
-0.494200
  0
VERTEX
  8
LAYER_1
 10
1.659000
 20
-0.482200
  0
SEQEND
  0
POLYLINE
  8
LAYER_1
 40
0.050000
 41
0.050000
 66
1
 10
0
 20
0
 30
0
 70
1
  0
VERTEX
  8
LAYER_1
 10
1.650000
 20
-0.494200
  0
VERTEX
  8
LAYER_1
 10
1.644000
 20
-0.506200
  0
SEQEND
  0
POLYLINE
  8
LAYER_1
 40
0.050000
 41
0.050000
 66
1
 10
0
 20
0
 30
0
 70
1
  0
VERTEX
  8
LAYER_1
 10
1.644000
 20
-0.506200
  0
VERTEX
  8
LAYER_1
 10
1.650000
 20
-0.494200
  0
SEQEND
  0
POLYLINE
  8
LAYER_1
 40
0.050000
 41
0.050000
 66
1
 10
0
 20
0
 30
0
 70
1
  0
VERTEX
  8
LAYER_1
 10
1.644000
 20
-0.506200
  0
VERTEX
  8
LAYER_1
 10
1.638000
 20
-0.518200
  0
SEQEND
  0
POLYLINE
  8
LAYER_1
 40
0.050000
 41
0.050000
 66
1
 10
0
 20
0
 30
0
 70
1
  0
VERTEX
  8
LAYER_1
 10
1.638000
 20
-0.518200
  0
VERTEX
  8
LAYER_1
 10
1.644000
 20
-0.506200
  0
SEQEND
  0
POLYLINE
  8
LAYER_1
 40
0.050000
 41
0.050000
 66
1
 10
0
 20
0
 30
0
 70
1
  0
VERTEX
  8
LAYER_1
 10
1.638000
 20
-0.518200
  0
VERTEX
  8
LAYER_1
 10
1.634000
 20
-0.531200
  0
SEQEND
  0
POLYLINE
  8
LAYER_1
 40
0.050000
 41
0.050000
 66
1
 10
0
 20
0
 30
0
 70
1
  0
VERTEX
  8
LAYER_1
 10
1.634000
 20
-0.531200
  0
VERTEX
  8
LAYER_1
 10
1.638000
 20
-0.518200
  0
SEQEND
  0
POLYLINE
  8
LAYER_1
 40
0.050000
 41
0.050000
 66
1
 10
0
 20
0
 30
0
 70
1
  0
VERTEX
  8
LAYER_1
 10
1.634000
 20
-0.531200
  0
VERTEX
  8
LAYER_1
 10
1.632000
 20
-0.545200
  0
SEQEND
  0
POLYLINE
  8
LAYER_1
 40
0.050000
 41
0.050000
 66
1
 10
0
 20
0
 30
0
 70
1
  0
VERTEX
  8
LAYER_1
 10
1.632000
 20
-0.545200
  0
VERTEX
  8
LAYER_1
 10
1.634000
 20
-0.531200
  0
SEQEND
  0
POLYLINE
  8
LAYER_1
 40
0.050000
 41
0.050000
 66
1
 10
0
 20
0
 30
0
 70
1
  0
VERTEX
  8
LAYER_1
 10
1.632000
 20
-0.545200
  0
VERTEX
  8
LAYER_1
 10
1.631000
 20
-0.559200
  0
SEQEND
  0
POLYLINE
  8
LAYER_1
 40
0.050000
 41
0.050000
 66
1
 10
0
 20
0
 30
0
 70
1
  0
VERTEX
  8
LAYER_1
 10
1.631000
 20
-0.559200
  0
VERTEX
  8
LAYER_1
 10
1.632000
 20
-0.545200
  0
SEQEND
  0
ENDBLK
  0
BLOCK
  8
LAYER_1
  2
AIGNBL01020023
 70
64
 10
0
 20
0
 30
0
  3
AIGNBL01020023
  0
POLYLINE
  8
LAYER_1
 40
0.050000
 41
0.050000
 66
1
 10
0
 20
0
 30
0
 70
1
  0
VERTEX
  8
LAYER_1
 10
4.200000
 20
-0.421200
  0
VERTEX
  8
LAYER_1
 10
1.792000
 20
-0.421200
  0
SEQEND
  0
POLYLINE
  8
LAYER_1
 40
0.050000
 41
0.050000
 66
1
 10
0
 20
0
 30
0
 70
1
  0
VERTEX
  8
LAYER_1
 10
1.792000
 20
-0.421200
  0
VERTEX
  8
LAYER_1
 10
4.200000
 20
-0.421200
  0
SEQEND
  0
ENDBLK
  0
BLOCK
  8
LAYER_1
  2
AIGNBL01010002
 70
64
 10
0
 20
0
 30
0
  3
AIGNBL01010002
  0
POLYLINE
  8
LAYER_1
 40
0.050000
 41
0.050000
 66
1
 10
0
 20
0
 30
0
 70
1
  0
VERTEX
  8
LAYER_1
 10
1.856000
 20
-0.853200
  0
VERTEX
  8
LAYER_1
 10
1.855000
 20
-0.846200
  0
SEQEND
  0
POLYLINE
  8
LAYER_1
 40
0.050000
 41
0.050000
 66
1
 10
0
 20
0
 30
0
 70
1
  0
VERTEX
  8
LAYER_1
 10
1.855000
 20
-0.846200
  0
VERTEX
  8
LAYER_1
 10
1.856000
 20
-0.853200
  0
SEQEND
  0
POLYLINE
  8
LAYER_1
 40
0.050000
 41
0.050000
 66
1
 10
0
 20
0
 30
0
 70
1
  0
VERTEX
  8
LAYER_1
 10
1.855000
 20
-0.846200
  0
VERTEX
  8
LAYER_1
 10
1.854000
 20
-0.840200
  0
SEQEND
  0
POLYLINE
  8
LAYER_1
 40
0.050000
 41
0.050000
 66
1
 10
0
 20
0
 30
0
 70
1
  0
VERTEX
  8
LAYER_1
 10
1.854000
 20
-0.840200
  0
VERTEX
  8
LAYER_1
 10
1.855000
 20
-0.846200
  0
SEQEND
  0
POLYLINE
  8
LAYER_1
 40
0.050000
 41
0.050000
 66
1
 10
0
 20
0
 30
0
 70
1
  0
VERTEX
  8
LAYER_1
 10
1.854000
 20
-0.840200
  0
VERTEX
  8
LAYER_1
 10
1.853000
 20
-0.834200
  0
SEQEND
  0
POLYLINE
  8
LAYER_1
 40
0.050000
 41
0.050000
 66
1
 10
0
 20
0
 30
0
 70
1
  0
VERTEX
  8
LAYER_1
 10
1.853000
 20
-0.834200
  0
VERTEX
  8
LAYER_1
 10
1.854000
 20
-0.840200
  0
SEQEND
  0
POLYLINE
  8
LAYER_1
 40
0.050000
 41
0.050000
 66
1
 10
0
 20
0
 30
0
 70
1
  0
VERTEX
  8
LAYER_1
 10
1.853000
 20
-0.834200
  0
VERTEX
  8
LAYER_1
 10
1.851000
 20
-0.828200
  0
SEQEND
  0
POLYLINE
  8
LAYER_1
 40
0.050000
 41
0.050000
 66
1
 10
0
 20
0
 30
0
 70
1
  0
VERTEX
  8
LAYER_1
 10
1.851000
 20
-0.828200
  0
VERTEX
  8
LAYER_1
 10
1.853000
 20
-0.834200
  0
SEQEND
  0
POLYLINE
  8
LAYER_1
 40
0.050000
 41
0.050000
 66
1
 10
0
 20
0
 30
0
 70
1
  0
VERTEX
  8
LAYER_1
 10
1.851000
 20
-0.828200
  0
VERTEX
  8
LAYER_1
 10
1.848000
 20
-0.823200
  0
SEQEND
  0
POLYLINE
  8
LAYER_1
 40
0.050000
 41
0.050000
 66
1
 10
0
 20
0
 30
0
 70
1
  0
VERTEX
  8
LAYER_1
 10
1.848000
 20
-0.823200
  0
VERTEX
  8
LAYER_1
 10
1.851000
 20
-0.828200
  0
SEQEND
  0
POLYLINE
  8
LAYER_1
 40
0.050000
 41
0.050000
 66
1
 10
0
 20
0
 30
0
 70
1
  0
VERTEX
  8
LAYER_1
 10
1.848000
 20
-0.823200
  0
VERTEX
  8
LAYER_1
 10
1.845000
 20
-0.818200
  0
SEQEND
  0
POLYLINE
  8
LAYER_1
 40
0.050000
 41
0.050000
 66
1
 10
0
 20
0
 30
0
 70
1
  0
VERTEX
  8
LAYER_1
 10
1.845000
 20
-0.818200
  0
VERTEX
  8
LAYER_1
 10
1.848000
 20
-0.823200
  0
SEQEND
  0
POLYLINE
  8
LAYER_1
 40
0.050000
 41
0.050000
 66
1
 10
0
 20
0
 30
0
 70
1
  0
VERTEX
  8
LAYER_1
 10
1.845000
 20
-0.818200
  0
VERTEX
  8
LAYER_1
 10
1.841000
 20
-0.813200
  0
SEQEND
  0
POLYLINE
  8
LAYER_1
 40
0.050000
 41
0.050000
 66
1
 10
0
 20
0
 30
0
 70
1
  0
VERTEX
  8
LAYER_1
 10
1.841000
 20
-0.813200
  0
VERTEX
  8
LAYER_1
 10
1.845000
 20
-0.818200
  0
SEQEND
  0
POLYLINE
  8
LAYER_1
 40
0.050000
 41
0.050000
 66
1
 10
0
 20
0
 30
0
 70
1
  0
VERTEX
  8
LAYER_1
 10
1.841000
 20
-0.813200
  0
VERTEX
  8
LAYER_1
 10
1.837000
 20
-0.808200
  0
SEQEND
  0
POLYLINE
  8
LAYER_1
 40
0.050000
 41
0.050000
 66
1
 10
0
 20
0
 30
0
 70
1
  0
VERTEX
  8
LAYER_1
 10
1.837000
 20
-0.808200
  0
VERTEX
  8
LAYER_1
 10
1.841000
 20
-0.813200
  0
SEQEND
  0
POLYLINE
  8
LAYER_1
 40
0.050000
 41
0.050000
 66
1
 10
0
 20
0
 30
0
 70
1
  0
VERTEX
  8
LAYER_1
 10
1.837000
 20
-0.808200
  0
VERTEX
  8
LAYER_1
 10
1.833000
 20
-0.804200
  0
SEQEND
  0
POLYLINE
  8
LAYER_1
 40
0.050000
 41
0.050000
 66
1
 10
0
 20
0
 30
0
 70
1
  0
VERTEX
  8
LAYER_1
 10
1.833000
 20
-0.804200
  0
VERTEX
  8
LAYER_1
 10
1.837000
 20
-0.808200
  0
SEQEND
  0
POLYLINE
  8
LAYER_1
 40
0.050000
 41
0.050000
 66
1
 10
0
 20
0
 30
0
 70
1
  0
VERTEX
  8
LAYER_1
 10
1.833000
 20
-0.804200
  0
VERTEX
  8
LAYER_1
 10
1.828000
 20
-0.801200
  0
SEQEND
  0
POLYLINE
  8
LAYER_1
 40
0.050000
 41
0.050000
 66
1
 10
0
 20
0
 30
0
 70
1
  0
VERTEX
  8
LAYER_1
 10
1.828000
 20
-0.801200
  0
VERTEX
  8
LAYER_1
 10
1.833000
 20
-0.804200
  0
SEQEND
  0
POLYLINE
  8
LAYER_1
 40
0.050000
 41
0.050000
 66
1
 10
0
 20
0
 30
0
 70
1
  0
VERTEX
  8
LAYER_1
 10
1.828000
 20
-0.801200
  0
VERTEX
  8
LAYER_1
 10
1.823000
 20
-0.798200
  0
SEQEND
  0
POLYLINE
  8
LAYER_1
 40
0.050000
 41
0.050000
 66
1
 10
0
 20
0
 30
0
 70
1
  0
VERTEX
  8
LAYER_1
 10
1.823000
 20
-0.798200
  0
VERTEX
  8
LAYER_1
 10
1.828000
 20
-0.801200
  0
SEQEND
  0
POLYLINE
  8
LAYER_1
 40
0.050000
 41
0.050000
 66
1
 10
0
 20
0
 30
0
 70
1
  0
VERTEX
  8
LAYER_1
 10
1.823000
 20
-0.798200
  0
VERTEX
  8
LAYER_1
 10
1.818000
 20
-0.795200
  0
SEQEND
  0
POLYLINE
  8
LAYER_1
 40
0.050000
 41
0.050000
 66
1
 10
0
 20
0
 30
0
 70
1
  0
VERTEX
  8
LAYER_1
 10
1.818000
 20
-0.795200
  0
VERTEX
  8
LAYER_1
 10
1.823000
 20
-0.798200
  0
SEQEND
  0
POLYLINE
  8
LAYER_1
 40
0.050000
 41
0.050000
 66
1
 10
0
 20
0
 30
0
 70
1
  0
VERTEX
  8
LAYER_1
 10
1.818000
 20
-0.795200
  0
VERTEX
  8
LAYER_1
 10
1.812000
 20
-0.793200
  0
SEQEND
  0
POLYLINE
  8
LAYER_1
 40
0.050000
 41
0.050000
 66
1
 10
0
 20
0
 30
0
 70
1
  0
VERTEX
  8
LAYER_1
 10
1.812000
 20
-0.793200
  0
VERTEX
  8
LAYER_1
 10
1.818000
 20
-0.795200
  0
SEQEND
  0
POLYLINE
  8
LAYER_1
 40
0.050000
 41
0.050000
 66
1
 10
0
 20
0
 30
0
 70
1
  0
VERTEX
  8
LAYER_1
 10
1.812000
 20
-0.793200
  0
VERTEX
  8
LAYER_1
 10
1.806000
 20
-0.792200
  0
SEQEND
  0
POLYLINE
  8
LAYER_1
 40
0.050000
 41
0.050000
 66
1
 10
0
 20
0
 30
0
 70
1
  0
VERTEX
  8
LAYER_1
 10
1.806000
 20
-0.792200
  0
VERTEX
  8
LAYER_1
 10
1.812000
 20
-0.793200
  0
SEQEND
  0
POLYLINE
  8
LAYER_1
 40
0.050000
 41
0.050000
 66
1
 10
0
 20
0
 30
0
 70
1
  0
VERTEX
  8
LAYER_1
 10
1.806000
 20
-0.792200
  0
VERTEX
  8
LAYER_1
 10
1.800000
 20
-0.791200
  0
SEQEND
  0
POLYLINE
  8
LAYER_1
 40
0.050000
 41
0.050000
 66
1
 10
0
 20
0
 30
0
 70
1
  0
VERTEX
  8
LAYER_1
 10
1.800000
 20
-0.791200
  0
VERTEX
  8
LAYER_1
 10
1.806000
 20
-0.792200
  0
SEQEND
  0
POLYLINE
  8
LAYER_1
 40
0.050000
 41
0.050000
 66
1
 10
0
 20
0
 30
0
 70
1
  0
VERTEX
  8
LAYER_1
 10
1.800000
 20
-0.791200
  0
VERTEX
  8
LAYER_1
 10
1.793000
 20
-0.790200
  0
SEQEND
  0
POLYLINE
  8
LAYER_1
 40
0.050000
 41
0.050000
 66
1
 10
0
 20
0
 30
0
 70
1
  0
VERTEX
  8
LAYER_1
 10
1.793000
 20
-0.790200
  0
VERTEX
  8
LAYER_1
 10
1.800000
 20
-0.791200
  0
SEQEND
  0
POLYLINE
  8
LAYER_1
 40
0.050000
 41
0.050000
 66
1
 10
0
 20
0
 30
0
 70
1
  0
VERTEX
  8
LAYER_1
 10
1.793000
 20
-0.790200
  0
VERTEX
  8
LAYER_1
 10
1.787000
 20
-0.791200
  0
SEQEND
  0
POLYLINE
  8
LAYER_1
 40
0.050000
 41
0.050000
 66
1
 10
0
 20
0
 30
0
 70
1
  0
VERTEX
  8
LAYER_1
 10
1.787000
 20
-0.791200
  0
VERTEX
  8
LAYER_1
 10
1.793000
 20
-0.790200
  0
SEQEND
  0
POLYLINE
  8
LAYER_1
 40
0.050000
 41
0.050000
 66
1
 10
0
 20
0
 30
0
 70
1
  0
VERTEX
  8
LAYER_1
 10
1.787000
 20
-0.791200
  0
VERTEX
  8
LAYER_1
 10
1.781000
 20
-0.792200
  0
SEQEND
  0
POLYLINE
  8
LAYER_1
 40
0.050000
 41
0.050000
 66
1
 10
0
 20
0
 30
0
 70
1
  0
VERTEX
  8
LAYER_1
 10
1.781000
 20
-0.792200
  0
VERTEX
  8
LAYER_1
 10
1.787000
 20
-0.791200
  0
SEQEND
  0
POLYLINE
  8
LAYER_1
 40
0.050000
 41
0.050000
 66
1
 10
0
 20
0
 30
0
 70
1
  0
VERTEX
  8
LAYER_1
 10
1.781000
 20
-0.792200
  0
VERTEX
  8
LAYER_1
 10
1.775000
 20
-0.793200
  0
SEQEND
  0
POLYLINE
  8
LAYER_1
 40
0.050000
 41
0.050000
 66
1
 10
0
 20
0
 30
0
 70
1
  0
VERTEX
  8
LAYER_1
 10
1.775000
 20
-0.793200
  0
VERTEX
  8
LAYER_1
 10
1.781000
 20
-0.792200
  0
SEQEND
  0
POLYLINE
  8
LAYER_1
 40
0.050000
 41
0.050000
 66
1
 10
0
 20
0
 30
0
 70
1
  0
VERTEX
  8
LAYER_1
 10
1.775000
 20
-0.793200
  0
VERTEX
  8
LAYER_1
 10
1.769000
 20
-0.795200
  0
SEQEND
  0
POLYLINE
  8
LAYER_1
 40
0.050000
 41
0.050000
 66
1
 10
0
 20
0
 30
0
 70
1
  0
VERTEX
  8
LAYER_1
 10
1.769000
 20
-0.795200
  0
VERTEX
  8
LAYER_1
 10
1.775000
 20
-0.793200
  0
SEQEND
  0
POLYLINE
  8
LAYER_1
 40
0.050000
 41
0.050000
 66
1
 10
0
 20
0
 30
0
 70
1
  0
VERTEX
  8
LAYER_1
 10
1.769000
 20
-0.795200
  0
VERTEX
  8
LAYER_1
 10
1.764000
 20
-0.798200
  0
SEQEND
  0
POLYLINE
  8
LAYER_1
 40
0.050000
 41
0.050000
 66
1
 10
0
 20
0
 30
0
 70
1
  0
VERTEX
  8
LAYER_1
 10
1.764000
 20
-0.798200
  0
VERTEX
  8
LAYER_1
 10
1.769000
 20
-0.795200
  0
SEQEND
  0
POLYLINE
  8
LAYER_1
 40
0.050000
 41
0.050000
 66
1
 10
0
 20
0
 30
0
 70
1
  0
VERTEX
  8
LAYER_1
 10
1.764000
 20
-0.798200
  0
VERTEX
  8
LAYER_1
 10
1.759000
 20
-0.801200
  0
SEQEND
  0
POLYLINE
  8
LAYER_1
 40
0.050000
 41
0.050000
 66
1
 10
0
 20
0
 30
0
 70
1
  0
VERTEX
  8
LAYER_1
 10
1.759000
 20
-0.801200
  0
VERTEX
  8
LAYER_1
 10
1.764000
 20
-0.798200
  0
SEQEND
  0
POLYLINE
  8
LAYER_1
 40
0.050000
 41
0.050000
 66
1
 10
0
 20
0
 30
0
 70
1
  0
VERTEX
  8
LAYER_1
 10
1.759000
 20
-0.801200
  0
VERTEX
  8
LAYER_1
 10
1.754000
 20
-0.804200
  0
SEQEND
  0
POLYLINE
  8
LAYER_1
 40
0.050000
 41
0.050000
 66
1
 10
0
 20
0
 30
0
 70
1
  0
VERTEX
  8
LAYER_1
 10
1.754000
 20
-0.804200
  0
VERTEX
  8
LAYER_1
 10
1.759000
 20
-0.801200
  0
SEQEND
  0
POLYLINE
  8
LAYER_1
 40
0.050000
 41
0.050000
 66
1
 10
0
 20
0
 30
0
 70
1
  0
VERTEX
  8
LAYER_1
 10
1.754000
 20
-0.804200
  0
VERTEX
  8
LAYER_1
 10
1.749000
 20
-0.808200
  0
SEQEND
  0
POLYLINE
  8
LAYER_1
 40
0.050000
 41
0.050000
 66
1
 10
0
 20
0
 30
0
 70
1
  0
VERTEX
  8
LAYER_1
 10
1.749000
 20
-0.808200
  0
VERTEX
  8
LAYER_1
 10
1.754000
 20
-0.804200
  0
SEQEND
  0
POLYLINE
  8
LAYER_1
 40
0.050000
 41
0.050000
 66
1
 10
0
 20
0
 30
0
 70
1
  0
VERTEX
  8
LAYER_1
 10
1.749000
 20
-0.808200
  0
VERTEX
  8
LAYER_1
 10
1.745000
 20
-0.813200
  0
SEQEND
  0
POLYLINE
  8
LAYER_1
 40
0.050000
 41
0.050000
 66
1
 10
0
 20
0
 30
0
 70
1
  0
VERTEX
  8
LAYER_1
 10
1.745000
 20
-0.813200
  0
VERTEX
  8
LAYER_1
 10
1.749000
 20
-0.808200
  0
SEQEND
  0
POLYLINE
  8
LAYER_1
 40
0.050000
 41
0.050000
 66
1
 10
0
 20
0
 30
0
 70
1
  0
VERTEX
  8
LAYER_1
 10
1.745000
 20
-0.813200
  0
VERTEX
  8
LAYER_1
 10
1.742000
 20
-0.818200
  0
SEQEND
  0
POLYLINE
  8
LAYER_1
 40
0.050000
 41
0.050000
 66
1
 10
0
 20
0
 30
0
 70
1
  0
VERTEX
  8
LAYER_1
 10
1.742000
 20
-0.818200
  0
VERTEX
  8
LAYER_1
 10
1.745000
 20
-0.813200
  0
SEQEND
  0
POLYLINE
  8
LAYER_1
 40
0.050000
 41
0.050000
 66
1
 10
0
 20
0
 30
0
 70
1
  0
VERTEX
  8
LAYER_1
 10
1.742000
 20
-0.818200
  0
VERTEX
  8
LAYER_1
 10
1.739000
 20
-0.823200
  0
SEQEND
  0
POLYLINE
  8
LAYER_1
 40
0.050000
 41
0.050000
 66
1
 10
0
 20
0
 30
0
 70
1
  0
VERTEX
  8
LAYER_1
 10
1.739000
 20
-0.823200
  0
VERTEX
  8
LAYER_1
 10
1.742000
 20
-0.818200
  0
SEQEND
  0
POLYLINE
  8
LAYER_1
 40
0.050000
 41
0.050000
 66
1
 10
0
 20
0
 30
0
 70
1
  0
VERTEX
  8
LAYER_1
 10
1.739000
 20
-0.823200
  0
VERTEX
  8
LAYER_1
 10
1.736000
 20
-0.828200
  0
SEQEND
  0
POLYLINE
  8
LAYER_1
 40
0.050000
 41
0.050000
 66
1
 10
0
 20
0
 30
0
 70
1
  0
VERTEX
  8
LAYER_1
 10
1.736000
 20
-0.828200
  0
VERTEX
  8
LAYER_1
 10
1.739000
 20
-0.823200
  0
SEQEND
  0
POLYLINE
  8
LAYER_1
 40
0.050000
 41
0.050000
 66
1
 10
0
 20
0
 30
0
 70
1
  0
VERTEX
  8
LAYER_1
 10
1.736000
 20
-0.828200
  0
VERTEX
  8
LAYER_1
 10
1.734000
 20
-0.834200
  0
SEQEND
  0
POLYLINE
  8
LAYER_1
 40
0.050000
 41
0.050000
 66
1
 10
0
 20
0
 30
0
 70
1
  0
VERTEX
  8
LAYER_1
 10
1.734000
 20
-0.834200
  0
VERTEX
  8
LAYER_1
 10
1.736000
 20
-0.828200
  0
SEQEND
  0
POLYLINE
  8
LAYER_1
 40
0.050000
 41
0.050000
 66
1
 10
0
 20
0
 30
0
 70
1
  0
VERTEX
  8
LAYER_1
 10
1.734000
 20
-0.834200
  0
VERTEX
  8
LAYER_1
 10
1.732000
 20
-0.840200
  0
SEQEND
  0
POLYLINE
  8
LAYER_1
 40
0.050000
 41
0.050000
 66
1
 10
0
 20
0
 30
0
 70
1
  0
VERTEX
  8
LAYER_1
 10
1.732000
 20
-0.840200
  0
VERTEX
  8
LAYER_1
 10
1.734000
 20
-0.834200
  0
SEQEND
  0
POLYLINE
  8
LAYER_1
 40
0.050000
 41
0.050000
 66
1
 10
0
 20
0
 30
0
 70
1
  0
VERTEX
  8
LAYER_1
 10
1.732000
 20
-0.840200
  0
VERTEX
  8
LAYER_1
 10
1.731000
 20
-0.846200
  0
SEQEND
  0
POLYLINE
  8
LAYER_1
 40
0.050000
 41
0.050000
 66
1
 10
0
 20
0
 30
0
 70
1
  0
VERTEX
  8
LAYER_1
 10
1.731000
 20
-0.846200
  0
VERTEX
  8
LAYER_1
 10
1.732000
 20
-0.840200
  0
SEQEND
  0
POLYLINE
  8
LAYER_1
 40
0.050000
 41
0.050000
 66
1
 10
0
 20
0
 30
0
 70
1
  0
VERTEX
  8
LAYER_1
 10
1.731000
 20
-0.846200
  0
VERTEX
  8
LAYER_1
 10
1.731000
 20
-0.853200
  0
SEQEND
  0
POLYLINE
  8
LAYER_1
 40
0.050000
 41
0.050000
 66
1
 10
0
 20
0
 30
0
 70
1
  0
VERTEX
  8
LAYER_1
 10
1.731000
 20
-0.853200
  0
VERTEX
  8
LAYER_1
 10
1.731000
 20
-0.846200
  0
SEQEND
  0
POLYLINE
  8
LAYER_1
 40
0.050000
 41
0.050000
 66
1
 10
0
 20
0
 30
0
 70
1
  0
VERTEX
  8
LAYER_1
 10
1.731000
 20
-0.853200
  0
VERTEX
  8
LAYER_1
 10
1.731000
 20
-0.859200
  0
SEQEND
  0
POLYLINE
  8
LAYER_1
 40
0.050000
 41
0.050000
 66
1
 10
0
 20
0
 30
0
 70
1
  0
VERTEX
  8
LAYER_1
 10
1.731000
 20
-0.859200
  0
VERTEX
  8
LAYER_1
 10
1.731000
 20
-0.853200
  0
SEQEND
  0
POLYLINE
  8
LAYER_1
 40
0.050000
 41
0.050000
 66
1
 10
0
 20
0
 30
0
 70
1
  0
VERTEX
  8
LAYER_1
 10
1.731000
 20
-0.859200
  0
VERTEX
  8
LAYER_1
 10
1.732000
 20
-0.865200
  0
SEQEND
  0
POLYLINE
  8
LAYER_1
 40
0.050000
 41
0.050000
 66
1
 10
0
 20
0
 30
0
 70
1
  0
VERTEX
  8
LAYER_1
 10
1.732000
 20
-0.865200
  0
VERTEX
  8
LAYER_1
 10
1.731000
 20
-0.859200
  0
SEQEND
  0
POLYLINE
  8
LAYER_1
 40
0.050000
 41
0.050000
 66
1
 10
0
 20
0
 30
0
 70
1
  0
VERTEX
  8
LAYER_1
 10
1.732000
 20
-0.865200
  0
VERTEX
  8
LAYER_1
 10
1.734000
 20
-0.871200
  0
SEQEND
  0
POLYLINE
  8
LAYER_1
 40
0.050000
 41
0.050000
 66
1
 10
0
 20
0
 30
0
 70
1
  0
VERTEX
  8
LAYER_1
 10
1.734000
 20
-0.871200
  0
VERTEX
  8
LAYER_1
 10
1.732000
 20
-0.865200
  0
SEQEND
  0
POLYLINE
  8
LAYER_1
 40
0.050000
 41
0.050000
 66
1
 10
0
 20
0
 30
0
 70
1
  0
VERTEX
  8
LAYER_1
 10
1.734000
 20
-0.871200
  0
VERTEX
  8
LAYER_1
 10
1.736000
 20
-0.877200
  0
SEQEND
  0
POLYLINE
  8
LAYER_1
 40
0.050000
 41
0.050000
 66
1
 10
0
 20
0
 30
0
 70
1
  0
VERTEX
  8
LAYER_1
 10
1.736000
 20
-0.877200
  0
VERTEX
  8
LAYER_1
 10
1.734000
 20
-0.871200
  0
SEQEND
  0
POLYLINE
  8
LAYER_1
 40
0.050000
 41
0.050000
 66
1
 10
0
 20
0
 30
0
 70
1
  0
VERTEX
  8
LAYER_1
 10
1.736000
 20
-0.877200
  0
VERTEX
  8
LAYER_1
 10
1.739000
 20
-0.882200
  0
SEQEND
  0
POLYLINE
  8
LAYER_1
 40
0.050000
 41
0.050000
 66
1
 10
0
 20
0
 30
0
 70
1
  0
VERTEX
  8
LAYER_1
 10
1.739000
 20
-0.882200
  0
VERTEX
  8
LAYER_1
 10
1.736000
 20
-0.877200
  0
SEQEND
  0
POLYLINE
  8
LAYER_1
 40
0.050000
 41
0.050000
 66
1
 10
0
 20
0
 30
0
 70
1
  0
VERTEX
  8
LAYER_1
 10
1.739000
 20
-0.882200
  0
VERTEX
  8
LAYER_1
 10
1.742000
 20
-0.887200
  0
SEQEND
  0
POLYLINE
  8
LAYER_1
 40
0.050000
 41
0.050000
 66
1
 10
0
 20
0
 30
0
 70
1
  0
VERTEX
  8
LAYER_1
 10
1.742000
 20
-0.887200
  0
VERTEX
  8
LAYER_1
 10
1.739000
 20
-0.882200
  0
SEQEND
  0
POLYLINE
  8
LAYER_1
 40
0.050000
 41
0.050000
 66
1
 10
0
 20
0
 30
0
 70
1
  0
VERTEX
  8
LAYER_1
 10
1.742000
 20
-0.887200
  0
VERTEX
  8
LAYER_1
 10
1.745000
 20
-0.892200
  0
SEQEND
  0
POLYLINE
  8
LAYER_1
 40
0.050000
 41
0.050000
 66
1
 10
0
 20
0
 30
0
 70
1
  0
VERTEX
  8
LAYER_1
 10
1.745000
 20
-0.892200
  0
VERTEX
  8
LAYER_1
 10
1.742000
 20
-0.887200
  0
SEQEND
  0
POLYLINE
  8
LAYER_1
 40
0.050000
 41
0.050000
 66
1
 10
0
 20
0
 30
0
 70
1
  0
VERTEX
  8
LAYER_1
 10
1.745000
 20
-0.892200
  0
VERTEX
  8
LAYER_1
 10
1.749000
 20
-0.897200
  0
SEQEND
  0
POLYLINE
  8
LAYER_1
 40
0.050000
 41
0.050000
 66
1
 10
0
 20
0
 30
0
 70
1
  0
VERTEX
  8
LAYER_1
 10
1.749000
 20
-0.897200
  0
VERTEX
  8
LAYER_1
 10
1.745000
 20
-0.892200
  0
SEQEND
  0
POLYLINE
  8
LAYER_1
 40
0.050000
 41
0.050000
 66
1
 10
0
 20
0
 30
0
 70
1
  0
VERTEX
  8
LAYER_1
 10
1.749000
 20
-0.897200
  0
VERTEX
  8
LAYER_1
 10
1.754000
 20
-0.901200
  0
SEQEND
  0
POLYLINE
  8
LAYER_1
 40
0.050000
 41
0.050000
 66
1
 10
0
 20
0
 30
0
 70
1
  0
VERTEX
  8
LAYER_1
 10
1.754000
 20
-0.901200
  0
VERTEX
  8
LAYER_1
 10
1.749000
 20
-0.897200
  0
SEQEND
  0
POLYLINE
  8
LAYER_1
 40
0.050000
 41
0.050000
 66
1
 10
0
 20
0
 30
0
 70
1
  0
VERTEX
  8
LAYER_1
 10
1.754000
 20
-0.901200
  0
VERTEX
  8
LAYER_1
 10
1.759000
 20
-0.904200
  0
SEQEND
  0
POLYLINE
  8
LAYER_1
 40
0.050000
 41
0.050000
 66
1
 10
0
 20
0
 30
0
 70
1
  0
VERTEX
  8
LAYER_1
 10
1.759000
 20
-0.904200
  0
VERTEX
  8
LAYER_1
 10
1.754000
 20
-0.901200
  0
SEQEND
  0
POLYLINE
  8
LAYER_1
 40
0.050000
 41
0.050000
 66
1
 10
0
 20
0
 30
0
 70
1
  0
VERTEX
  8
LAYER_1
 10
1.759000
 20
-0.904200
  0
VERTEX
  8
LAYER_1
 10
1.764000
 20
-0.907200
  0
SEQEND
  0
POLYLINE
  8
LAYER_1
 40
0.050000
 41
0.050000
 66
1
 10
0
 20
0
 30
0
 70
1
  0
VERTEX
  8
LAYER_1
 10
1.764000
 20
-0.907200
  0
VERTEX
  8
LAYER_1
 10
1.759000
 20
-0.904200
  0
SEQEND
  0
POLYLINE
  8
LAYER_1
 40
0.050000
 41
0.050000
 66
1
 10
0
 20
0
 30
0
 70
1
  0
VERTEX
  8
LAYER_1
 10
1.764000
 20
-0.907200
  0
VERTEX
  8
LAYER_1
 10
1.769000
 20
-0.910200
  0
SEQEND
  0
POLYLINE
  8
LAYER_1
 40
0.050000
 41
0.050000
 66
1
 10
0
 20
0
 30
0
 70
1
  0
VERTEX
  8
LAYER_1
 10
1.769000
 20
-0.910200
  0
VERTEX
  8
LAYER_1
 10
1.764000
 20
-0.907200
  0
SEQEND
  0
POLYLINE
  8
LAYER_1
 40
0.050000
 41
0.050000
 66
1
 10
0
 20
0
 30
0
 70
1
  0
VERTEX
  8
LAYER_1
 10
1.769000
 20
-0.910200
  0
VERTEX
  8
LAYER_1
 10
1.775000
 20
-0.912200
  0
SEQEND
  0
POLYLINE
  8
LAYER_1
 40
0.050000
 41
0.050000
 66
1
 10
0
 20
0
 30
0
 70
1
  0
VERTEX
  8
LAYER_1
 10
1.775000
 20
-0.912200
  0
VERTEX
  8
LAYER_1
 10
1.769000
 20
-0.910200
  0
SEQEND
  0
POLYLINE
  8
LAYER_1
 40
0.050000
 41
0.050000
 66
1
 10
0
 20
0
 30
0
 70
1
  0
VERTEX
  8
LAYER_1
 10
1.775000
 20
-0.912200
  0
VERTEX
  8
LAYER_1
 10
1.781000
 20
-0.913200
  0
SEQEND
  0
POLYLINE
  8
LAYER_1
 40
0.050000
 41
0.050000
 66
1
 10
0
 20
0
 30
0
 70
1
  0
VERTEX
  8
LAYER_1
 10
1.781000
 20
-0.913200
  0
VERTEX
  8
LAYER_1
 10
1.775000
 20
-0.912200
  0
SEQEND
  0
POLYLINE
  8
LAYER_1
 40
0.050000
 41
0.050000
 66
1
 10
0
 20
0
 30
0
 70
1
  0
VERTEX
  8
LAYER_1
 10
1.781000
 20
-0.913200
  0
VERTEX
  8
LAYER_1
 10
1.787000
 20
-0.914200
  0
SEQEND
  0
POLYLINE
  8
LAYER_1
 40
0.050000
 41
0.050000
 66
1
 10
0
 20
0
 30
0
 70
1
  0
VERTEX
  8
LAYER_1
 10
1.787000
 20
-0.914200
  0
VERTEX
  8
LAYER_1
 10
1.781000
 20
-0.913200
  0
SEQEND
  0
POLYLINE
  8
LAYER_1
 40
0.050000
 41
0.050000
 66
1
 10
0
 20
0
 30
0
 70
1
  0
VERTEX
  8
LAYER_1
 10
1.787000
 20
-0.914200
  0
VERTEX
  8
LAYER_1
 10
1.793000
 20
-0.915200
  0
SEQEND
  0
POLYLINE
  8
LAYER_1
 40
0.050000
 41
0.050000
 66
1
 10
0
 20
0
 30
0
 70
1
  0
VERTEX
  8
LAYER_1
 10
1.793000
 20
-0.915200
  0
VERTEX
  8
LAYER_1
 10
1.787000
 20
-0.914200
  0
SEQEND
  0
POLYLINE
  8
LAYER_1
 40
0.050000
 41
0.050000
 66
1
 10
0
 20
0
 30
0
 70
1
  0
VERTEX
  8
LAYER_1
 10
1.793000
 20
-0.915200
  0
VERTEX
  8
LAYER_1
 10
1.800000
 20
-0.914200
  0
SEQEND
  0
POLYLINE
  8
LAYER_1
 40
0.050000
 41
0.050000
 66
1
 10
0
 20
0
 30
0
 70
1
  0
VERTEX
  8
LAYER_1
 10
1.800000
 20
-0.914200
  0
VERTEX
  8
LAYER_1
 10
1.793000
 20
-0.915200
  0
SEQEND
  0
POLYLINE
  8
LAYER_1
 40
0.050000
 41
0.050000
 66
1
 10
0
 20
0
 30
0
 70
1
  0
VERTEX
  8
LAYER_1
 10
1.800000
 20
-0.914200
  0
VERTEX
  8
LAYER_1
 10
1.806000
 20
-0.913200
  0
SEQEND
  0
POLYLINE
  8
LAYER_1
 40
0.050000
 41
0.050000
 66
1
 10
0
 20
0
 30
0
 70
1
  0
VERTEX
  8
LAYER_1
 10
1.806000
 20
-0.913200
  0
VERTEX
  8
LAYER_1
 10
1.800000
 20
-0.914200
  0
SEQEND
  0
POLYLINE
  8
LAYER_1
 40
0.050000
 41
0.050000
 66
1
 10
0
 20
0
 30
0
 70
1
  0
VERTEX
  8
LAYER_1
 10
1.806000
 20
-0.913200
  0
VERTEX
  8
LAYER_1
 10
1.812000
 20
-0.912200
  0
SEQEND
  0
POLYLINE
  8
LAYER_1
 40
0.050000
 41
0.050000
 66
1
 10
0
 20
0
 30
0
 70
1
  0
VERTEX
  8
LAYER_1
 10
1.812000
 20
-0.912200
  0
VERTEX
  8
LAYER_1
 10
1.806000
 20
-0.913200
  0
SEQEND
  0
POLYLINE
  8
LAYER_1
 40
0.050000
 41
0.050000
 66
1
 10
0
 20
0
 30
0
 70
1
  0
VERTEX
  8
LAYER_1
 10
1.812000
 20
-0.912200
  0
VERTEX
  8
LAYER_1
 10
1.818000
 20
-0.910200
  0
SEQEND
  0
POLYLINE
  8
LAYER_1
 40
0.050000
 41
0.050000
 66
1
 10
0
 20
0
 30
0
 70
1
  0
VERTEX
  8
LAYER_1
 10
1.818000
 20
-0.910200
  0
VERTEX
  8
LAYER_1
 10
1.812000
 20
-0.912200
  0
SEQEND
  0
POLYLINE
  8
LAYER_1
 40
0.050000
 41
0.050000
 66
1
 10
0
 20
0
 30
0
 70
1
  0
VERTEX
  8
LAYER_1
 10
1.818000
 20
-0.910200
  0
VERTEX
  8
LAYER_1
 10
1.823000
 20
-0.907200
  0
SEQEND
  0
POLYLINE
  8
LAYER_1
 40
0.050000
 41
0.050000
 66
1
 10
0
 20
0
 30
0
 70
1
  0
VERTEX
  8
LAYER_1
 10
1.823000
 20
-0.907200
  0
VERTEX
  8
LAYER_1
 10
1.818000
 20
-0.910200
  0
SEQEND
  0
POLYLINE
  8
LAYER_1
 40
0.050000
 41
0.050000
 66
1
 10
0
 20
0
 30
0
 70
1
  0
VERTEX
  8
LAYER_1
 10
1.823000
 20
-0.907200
  0
VERTEX
  8
LAYER_1
 10
1.828000
 20
-0.904200
  0
SEQEND
  0
POLYLINE
  8
LAYER_1
 40
0.050000
 41
0.050000
 66
1
 10
0
 20
0
 30
0
 70
1
  0
VERTEX
  8
LAYER_1
 10
1.828000
 20
-0.904200
  0
VERTEX
  8
LAYER_1
 10
1.823000
 20
-0.907200
  0
SEQEND
  0
POLYLINE
  8
LAYER_1
 40
0.050000
 41
0.050000
 66
1
 10
0
 20
0
 30
0
 70
1
  0
VERTEX
  8
LAYER_1
 10
1.828000
 20
-0.904200
  0
VERTEX
  8
LAYER_1
 10
1.833000
 20
-0.901200
  0
SEQEND
  0
POLYLINE
  8
LAYER_1
 40
0.050000
 41
0.050000
 66
1
 10
0
 20
0
 30
0
 70
1
  0
VERTEX
  8
LAYER_1
 10
1.833000
 20
-0.901200
  0
VERTEX
  8
LAYER_1
 10
1.828000
 20
-0.904200
  0
SEQEND
  0
POLYLINE
  8
LAYER_1
 40
0.050000
 41
0.050000
 66
1
 10
0
 20
0
 30
0
 70
1
  0
VERTEX
  8
LAYER_1
 10
1.833000
 20
-0.901200
  0
VERTEX
  8
LAYER_1
 10
1.837000
 20
-0.897200
  0
SEQEND
  0
POLYLINE
  8
LAYER_1
 40
0.050000
 41
0.050000
 66
1
 10
0
 20
0
 30
0
 70
1
  0
VERTEX
  8
LAYER_1
 10
1.837000
 20
-0.897200
  0
VERTEX
  8
LAYER_1
 10
1.833000
 20
-0.901200
  0
SEQEND
  0
POLYLINE
  8
LAYER_1
 40
0.050000
 41
0.050000
 66
1
 10
0
 20
0
 30
0
 70
1
  0
VERTEX
  8
LAYER_1
 10
1.837000
 20
-0.897200
  0
VERTEX
  8
LAYER_1
 10
1.841000
 20
-0.892200
  0
SEQEND
  0
POLYLINE
  8
LAYER_1
 40
0.050000
 41
0.050000
 66
1
 10
0
 20
0
 30
0
 70
1
  0
VERTEX
  8
LAYER_1
 10
1.841000
 20
-0.892200
  0
VERTEX
  8
LAYER_1
 10
1.837000
 20
-0.897200
  0
SEQEND
  0
POLYLINE
  8
LAYER_1
 40
0.050000
 41
0.050000
 66
1
 10
0
 20
0
 30
0
 70
1
  0
VERTEX
  8
LAYER_1
 10
1.841000
 20
-0.892200
  0
VERTEX
  8
LAYER_1
 10
1.845000
 20
-0.887200
  0
SEQEND
  0
POLYLINE
  8
LAYER_1
 40
0.050000
 41
0.050000
 66
1
 10
0
 20
0
 30
0
 70
1
  0
VERTEX
  8
LAYER_1
 10
1.845000
 20
-0.887200
  0
VERTEX
  8
LAYER_1
 10
1.841000
 20
-0.892200
  0
SEQEND
  0
POLYLINE
  8
LAYER_1
 40
0.050000
 41
0.050000
 66
1
 10
0
 20
0
 30
0
 70
1
  0
VERTEX
  8
LAYER_1
 10
1.845000
 20
-0.887200
  0
VERTEX
  8
LAYER_1
 10
1.848000
 20
-0.882200
  0
SEQEND
  0
POLYLINE
  8
LAYER_1
 40
0.050000
 41
0.050000
 66
1
 10
0
 20
0
 30
0
 70
1
  0
VERTEX
  8
LAYER_1
 10
1.848000
 20
-0.882200
  0
VERTEX
  8
LAYER_1
 10
1.845000
 20
-0.887200
  0
SEQEND
  0
POLYLINE
  8
LAYER_1
 40
0.050000
 41
0.050000
 66
1
 10
0
 20
0
 30
0
 70
1
  0
VERTEX
  8
LAYER_1
 10
1.848000
 20
-0.882200
  0
VERTEX
  8
LAYER_1
 10
1.851000
 20
-0.877200
  0
SEQEND
  0
POLYLINE
  8
LAYER_1
 40
0.050000
 41
0.050000
 66
1
 10
0
 20
0
 30
0
 70
1
  0
VERTEX
  8
LAYER_1
 10
1.851000
 20
-0.877200
  0
VERTEX
  8
LAYER_1
 10
1.848000
 20
-0.882200
  0
SEQEND
  0
POLYLINE
  8
LAYER_1
 40
0.050000
 41
0.050000
 66
1
 10
0
 20
0
 30
0
 70
1
  0
VERTEX
  8
LAYER_1
 10
1.851000
 20
-0.877200
  0
VERTEX
  8
LAYER_1
 10
1.853000
 20
-0.871200
  0
SEQEND
  0
POLYLINE
  8
LAYER_1
 40
0.050000
 41
0.050000
 66
1
 10
0
 20
0
 30
0
 70
1
  0
VERTEX
  8
LAYER_1
 10
1.853000
 20
-0.871200
  0
VERTEX
  8
LAYER_1
 10
1.851000
 20
-0.877200
  0
SEQEND
  0
POLYLINE
  8
LAYER_1
 40
0.050000
 41
0.050000
 66
1
 10
0
 20
0
 30
0
 70
1
  0
VERTEX
  8
LAYER_1
 10
1.853000
 20
-0.871200
  0
VERTEX
  8
LAYER_1
 10
1.854000
 20
-0.865200
  0
SEQEND
  0
POLYLINE
  8
LAYER_1
 40
0.050000
 41
0.050000
 66
1
 10
0
 20
0
 30
0
 70
1
  0
VERTEX
  8
LAYER_1
 10
1.854000
 20
-0.865200
  0
VERTEX
  8
LAYER_1
 10
1.853000
 20
-0.871200
  0
SEQEND
  0
POLYLINE
  8
LAYER_1
 40
0.050000
 41
0.050000
 66
1
 10
0
 20
0
 30
0
 70
1
  0
VERTEX
  8
LAYER_1
 10
1.854000
 20
-0.865200
  0
VERTEX
  8
LAYER_1
 10
1.855000
 20
-0.859200
  0
SEQEND
  0
POLYLINE
  8
LAYER_1
 40
0.050000
 41
0.050000
 66
1
 10
0
 20
0
 30
0
 70
1
  0
VERTEX
  8
LAYER_1
 10
1.855000
 20
-0.859200
  0
VERTEX
  8
LAYER_1
 10
1.854000
 20
-0.865200
  0
SEQEND
  0
POLYLINE
  8
LAYER_1
 40
0.050000
 41
0.050000
 66
1
 10
0
 20
0
 30
0
 70
1
  0
VERTEX
  8
LAYER_1
 10
1.855000
 20
-0.859200
  0
VERTEX
  8
LAYER_1
 10
1.856000
 20
-0.853200
  0
SEQEND
  0
POLYLINE
  8
LAYER_1
 40
0.050000
 41
0.050000
 66
1
 10
0
 20
0
 30
0
 70
1
  0
VERTEX
  8
LAYER_1
 10
1.856000
 20
-0.853200
  0
VERTEX
  8
LAYER_1
 10
1.855000
 20
-0.859200
  0
SEQEND
  0
ENDBLK
  0
BLOCK
  8
LAYER_1
  2
AIGNBL01010003
 70
64
 10
0
 20
0
 30
0
  3
AIGNBL01010003
  0
POLYLINE
  8
LAYER_1
 40
0.050000
 41
0.050000
 66
1
 10
0
 20
0
 30
0
 70
1
  0
VERTEX
  8
LAYER_1
 10
4.253000
 20
-0.853200
  0
VERTEX
  8
LAYER_1
 10
4.252000
 20
-0.846200
  0
SEQEND
  0
POLYLINE
  8
LAYER_1
 40
0.050000
 41
0.050000
 66
1
 10
0
 20
0
 30
0
 70
1
  0
VERTEX
  8
LAYER_1
 10
4.252000
 20
-0.846200
  0
VERTEX
  8
LAYER_1
 10
4.253000
 20
-0.853200
  0
SEQEND
  0
POLYLINE
  8
LAYER_1
 40
0.050000
 41
0.050000
 66
1
 10
0
 20
0
 30
0
 70
1
  0
VERTEX
  8
LAYER_1
 10
4.252000
 20
-0.846200
  0
VERTEX
  8
LAYER_1
 10
4.251000
 20
-0.840200
  0
SEQEND
  0
POLYLINE
  8
LAYER_1
 40
0.050000
 41
0.050000
 66
1
 10
0
 20
0
 30
0
 70
1
  0
VERTEX
  8
LAYER_1
 10
4.251000
 20
-0.840200
  0
VERTEX
  8
LAYER_1
 10
4.252000
 20
-0.846200
  0
SEQEND
  0
POLYLINE
  8
LAYER_1
 40
0.050000
 41
0.050000
 66
1
 10
0
 20
0
 30
0
 70
1
  0
VERTEX
  8
LAYER_1
 10
4.251000
 20
-0.840200
  0
VERTEX
  8
LAYER_1
 10
4.250000
 20
-0.834200
  0
SEQEND
  0
POLYLINE
  8
LAYER_1
 40
0.050000
 41
0.050000
 66
1
 10
0
 20
0
 30
0
 70
1
  0
VERTEX
  8
LAYER_1
 10
4.250000
 20
-0.834200
  0
VERTEX
  8
LAYER_1
 10
4.251000
 20
-0.840200
  0
SEQEND
  0
POLYLINE
  8
LAYER_1
 40
0.050000
 41
0.050000
 66
1
 10
0
 20
0
 30
0
 70
1
  0
VERTEX
  8
LAYER_1
 10
4.250000
 20
-0.834200
  0
VERTEX
  8
LAYER_1
 10
4.248000
 20
-0.828200
  0
SEQEND
  0
POLYLINE
  8
LAYER_1
 40
0.050000
 41
0.050000
 66
1
 10
0
 20
0
 30
0
 70
1
  0
VERTEX
  8
LAYER_1
 10
4.248000
 20
-0.828200
  0
VERTEX
  8
LAYER_1
 10
4.250000
 20
-0.834200
  0
SEQEND
  0
POLYLINE
  8
LAYER_1
 40
0.050000
 41
0.050000
 66
1
 10
0
 20
0
 30
0
 70
1
  0
VERTEX
  8
LAYER_1
 10
4.248000
 20
-0.828200
  0
VERTEX
  8
LAYER_1
 10
4.245000
 20
-0.823200
  0
SEQEND
  0
POLYLINE
  8
LAYER_1
 40
0.050000
 41
0.050000
 66
1
 10
0
 20
0
 30
0
 70
1
  0
VERTEX
  8
LAYER_1
 10
4.245000
 20
-0.823200
  0
VERTEX
  8
LAYER_1
 10
4.248000
 20
-0.828200
  0
SEQEND
  0
POLYLINE
  8
LAYER_1
 40
0.050000
 41
0.050000
 66
1
 10
0
 20
0
 30
0
 70
1
  0
VERTEX
  8
LAYER_1
 10
4.245000
 20
-0.823200
  0
VERTEX
  8
LAYER_1
 10
4.242000
 20
-0.818200
  0
SEQEND
  0
POLYLINE
  8
LAYER_1
 40
0.050000
 41
0.050000
 66
1
 10
0
 20
0
 30
0
 70
1
  0
VERTEX
  8
LAYER_1
 10
4.242000
 20
-0.818200
  0
VERTEX
  8
LAYER_1
 10
4.245000
 20
-0.823200
  0
SEQEND
  0
POLYLINE
  8
LAYER_1
 40
0.050000
 41
0.050000
 66
1
 10
0
 20
0
 30
0
 70
1
  0
VERTEX
  8
LAYER_1
 10
4.242000
 20
-0.818200
  0
VERTEX
  8
LAYER_1
 10
4.238000
 20
-0.813200
  0
SEQEND
  0
POLYLINE
  8
LAYER_1
 40
0.050000
 41
0.050000
 66
1
 10
0
 20
0
 30
0
 70
1
  0
VERTEX
  8
LAYER_1
 10
4.238000
 20
-0.813200
  0
VERTEX
  8
LAYER_1
 10
4.242000
 20
-0.818200
  0
SEQEND
  0
POLYLINE
  8
LAYER_1
 40
0.050000
 41
0.050000
 66
1
 10
0
 20
0
 30
0
 70
1
  0
VERTEX
  8
LAYER_1
 10
4.238000
 20
-0.813200
  0
VERTEX
  8
LAYER_1
 10
4.234000
 20
-0.808200
  0
SEQEND
  0
POLYLINE
  8
LAYER_1
 40
0.050000
 41
0.050000
 66
1
 10
0
 20
0
 30
0
 70
1
  0
VERTEX
  8
LAYER_1
 10
4.234000
 20
-0.808200
  0
VERTEX
  8
LAYER_1
 10
4.238000
 20
-0.813200
  0
SEQEND
  0
POLYLINE
  8
LAYER_1
 40
0.050000
 41
0.050000
 66
1
 10
0
 20
0
 30
0
 70
1
  0
VERTEX
  8
LAYER_1
 10
4.234000
 20
-0.808200
  0
VERTEX
  8
LAYER_1
 10
4.230000
 20
-0.804200
  0
SEQEND
  0
POLYLINE
  8
LAYER_1
 40
0.050000
 41
0.050000
 66
1
 10
0
 20
0
 30
0
 70
1
  0
VERTEX
  8
LAYER_1
 10
4.230000
 20
-0.804200
  0
VERTEX
  8
LAYER_1
 10
4.234000
 20
-0.808200
  0
SEQEND
  0
POLYLINE
  8
LAYER_1
 40
0.050000
 41
0.050000
 66
1
 10
0
 20
0
 30
0
 70
1
  0
VERTEX
  8
LAYER_1
 10
4.230000
 20
-0.804200
  0
VERTEX
  8
LAYER_1
 10
4.225000
 20
-0.801200
  0
SEQEND
  0
POLYLINE
  8
LAYER_1
 40
0.050000
 41
0.050000
 66
1
 10
0
 20
0
 30
0
 70
1
  0
VERTEX
  8
LAYER_1
 10
4.225000
 20
-0.801200
  0
VERTEX
  8
LAYER_1
 10
4.230000
 20
-0.804200
  0
SEQEND
  0
POLYLINE
  8
LAYER_1
 40
0.050000
 41
0.050000
 66
1
 10
0
 20
0
 30
0
 70
1
  0
VERTEX
  8
LAYER_1
 10
4.225000
 20
-0.801200
  0
VERTEX
  8
LAYER_1
 10
4.220000
 20
-0.798200
  0
SEQEND
  0
POLYLINE
  8
LAYER_1
 40
0.050000
 41
0.050000
 66
1
 10
0
 20
0
 30
0
 70
1
  0
VERTEX
  8
LAYER_1
 10
4.220000
 20
-0.798200
  0
VERTEX
  8
LAYER_1
 10
4.225000
 20
-0.801200
  0
SEQEND
  0
POLYLINE
  8
LAYER_1
 40
0.050000
 41
0.050000
 66
1
 10
0
 20
0
 30
0
 70
1
  0
VERTEX
  8
LAYER_1
 10
4.220000
 20
-0.798200
  0
VERTEX
  8
LAYER_1
 10
4.215000
 20
-0.795200
  0
SEQEND
  0
POLYLINE
  8
LAYER_1
 40
0.050000
 41
0.050000
 66
1
 10
0
 20
0
 30
0
 70
1
  0
VERTEX
  8
LAYER_1
 10
4.215000
 20
-0.795200
  0
VERTEX
  8
LAYER_1
 10
4.220000
 20
-0.798200
  0
SEQEND
  0
POLYLINE
  8
LAYER_1
 40
0.050000
 41
0.050000
 66
1
 10
0
 20
0
 30
0
 70
1
  0
VERTEX
  8
LAYER_1
 10
4.215000
 20
-0.795200
  0
VERTEX
  8
LAYER_1
 10
4.209000
 20
-0.793200
  0
SEQEND
  0
POLYLINE
  8
LAYER_1
 40
0.050000
 41
0.050000
 66
1
 10
0
 20
0
 30
0
 70
1
  0
VERTEX
  8
LAYER_1
 10
4.209000
 20
-0.793200
  0
VERTEX
  8
LAYER_1
 10
4.215000
 20
-0.795200
  0
SEQEND
  0
POLYLINE
  8
LAYER_1
 40
0.050000
 41
0.050000
 66
1
 10
0
 20
0
 30
0
 70
1
  0
VERTEX
  8
LAYER_1
 10
4.209000
 20
-0.793200
  0
VERTEX
  8
LAYER_1
 10
4.203000
 20
-0.792200
  0
SEQEND
  0
POLYLINE
  8
LAYER_1
 40
0.050000
 41
0.050000
 66
1
 10
0
 20
0
 30
0
 70
1
  0
VERTEX
  8
LAYER_1
 10
4.203000
 20
-0.792200
  0
VERTEX
  8
LAYER_1
 10
4.209000
 20
-0.793200
  0
SEQEND
  0
POLYLINE
  8
LAYER_1
 40
0.050000
 41
0.050000
 66
1
 10
0
 20
0
 30
0
 70
1
  0
VERTEX
  8
LAYER_1
 10
4.203000
 20
-0.792200
  0
VERTEX
  8
LAYER_1
 10
4.197000
 20
-0.791200
  0
SEQEND
  0
POLYLINE
  8
LAYER_1
 40
0.050000
 41
0.050000
 66
1
 10
0
 20
0
 30
0
 70
1
  0
VERTEX
  8
LAYER_1
 10
4.197000
 20
-0.791200
  0
VERTEX
  8
LAYER_1
 10
4.203000
 20
-0.792200
  0
SEQEND
  0
POLYLINE
  8
LAYER_1
 40
0.050000
 41
0.050000
 66
1
 10
0
 20
0
 30
0
 70
1
  0
VERTEX
  8
LAYER_1
 10
4.197000
 20
-0.791200
  0
VERTEX
  8
LAYER_1
 10
4.190000
 20
-0.790200
  0
SEQEND
  0
POLYLINE
  8
LAYER_1
 40
0.050000
 41
0.050000
 66
1
 10
0
 20
0
 30
0
 70
1
  0
VERTEX
  8
LAYER_1
 10
4.190000
 20
-0.790200
  0
VERTEX
  8
LAYER_1
 10
4.197000
 20
-0.791200
  0
SEQEND
  0
POLYLINE
  8
LAYER_1
 40
0.050000
 41
0.050000
 66
1
 10
0
 20
0
 30
0
 70
1
  0
VERTEX
  8
LAYER_1
 10
4.190000
 20
-0.790200
  0
VERTEX
  8
LAYER_1
 10
4.184000
 20
-0.791200
  0
SEQEND
  0
POLYLINE
  8
LAYER_1
 40
0.050000
 41
0.050000
 66
1
 10
0
 20
0
 30
0
 70
1
  0
VERTEX
  8
LAYER_1
 10
4.184000
 20
-0.791200
  0
VERTEX
  8
LAYER_1
 10
4.190000
 20
-0.790200
  0
SEQEND
  0
POLYLINE
  8
LAYER_1
 40
0.050000
 41
0.050000
 66
1
 10
0
 20
0
 30
0
 70
1
  0
VERTEX
  8
LAYER_1
 10
4.184000
 20
-0.791200
  0
VERTEX
  8
LAYER_1
 10
4.178000
 20
-0.792200
  0
SEQEND
  0
POLYLINE
  8
LAYER_1
 40
0.050000
 41
0.050000
 66
1
 10
0
 20
0
 30
0
 70
1
  0
VERTEX
  8
LAYER_1
 10
4.178000
 20
-0.792200
  0
VERTEX
  8
LAYER_1
 10
4.184000
 20
-0.791200
  0
SEQEND
  0
POLYLINE
  8
LAYER_1
 40
0.050000
 41
0.050000
 66
1
 10
0
 20
0
 30
0
 70
1
  0
VERTEX
  8
LAYER_1
 10
4.178000
 20
-0.792200
  0
VERTEX
  8
LAYER_1
 10
4.172000
 20
-0.793200
  0
SEQEND
  0
POLYLINE
  8
LAYER_1
 40
0.050000
 41
0.050000
 66
1
 10
0
 20
0
 30
0
 70
1
  0
VERTEX
  8
LAYER_1
 10
4.172000
 20
-0.793200
  0
VERTEX
  8
LAYER_1
 10
4.178000
 20
-0.792200
  0
SEQEND
  0
POLYLINE
  8
LAYER_1
 40
0.050000
 41
0.050000
 66
1
 10
0
 20
0
 30
0
 70
1
  0
VERTEX
  8
LAYER_1
 10
4.172000
 20
-0.793200
  0
VERTEX
  8
LAYER_1
 10
4.166000
 20
-0.795200
  0
SEQEND
  0
POLYLINE
  8
LAYER_1
 40
0.050000
 41
0.050000
 66
1
 10
0
 20
0
 30
0
 70
1
  0
VERTEX
  8
LAYER_1
 10
4.166000
 20
-0.795200
  0
VERTEX
  8
LAYER_1
 10
4.172000
 20
-0.793200
  0
SEQEND
  0
POLYLINE
  8
LAYER_1
 40
0.050000
 41
0.050000
 66
1
 10
0
 20
0
 30
0
 70
1
  0
VERTEX
  8
LAYER_1
 10
4.166000
 20
-0.795200
  0
VERTEX
  8
LAYER_1
 10
4.161000
 20
-0.798200
  0
SEQEND
  0
POLYLINE
  8
LAYER_1
 40
0.050000
 41
0.050000
 66
1
 10
0
 20
0
 30
0
 70
1
  0
VERTEX
  8
LAYER_1
 10
4.161000
 20
-0.798200
  0
VERTEX
  8
LAYER_1
 10
4.166000
 20
-0.795200
  0
SEQEND
  0
POLYLINE
  8
LAYER_1
 40
0.050000
 41
0.050000
 66
1
 10
0
 20
0
 30
0
 70
1
  0
VERTEX
  8
LAYER_1
 10
4.161000
 20
-0.798200
  0
VERTEX
  8
LAYER_1
 10
4.156000
 20
-0.801200
  0
SEQEND
  0
POLYLINE
  8
LAYER_1
 40
0.050000
 41
0.050000
 66
1
 10
0
 20
0
 30
0
 70
1
  0
VERTEX
  8
LAYER_1
 10
4.156000
 20
-0.801200
  0
VERTEX
  8
LAYER_1
 10
4.161000
 20
-0.798200
  0
SEQEND
  0
POLYLINE
  8
LAYER_1
 40
0.050000
 41
0.050000
 66
1
 10
0
 20
0
 30
0
 70
1
  0
VERTEX
  8
LAYER_1
 10
4.156000
 20
-0.801200
  0
VERTEX
  8
LAYER_1
 10
4.151000
 20
-0.804200
  0
SEQEND
  0
POLYLINE
  8
LAYER_1
 40
0.050000
 41
0.050000
 66
1
 10
0
 20
0
 30
0
 70
1
  0
VERTEX
  8
LAYER_1
 10
4.151000
 20
-0.804200
  0
VERTEX
  8
LAYER_1
 10
4.156000
 20
-0.801200
  0
SEQEND
  0
POLYLINE
  8
LAYER_1
 40
0.050000
 41
0.050000
 66
1
 10
0
 20
0
 30
0
 70
1
  0
VERTEX
  8
LAYER_1
 10
4.151000
 20
-0.804200
  0
VERTEX
  8
LAYER_1
 10
4.146000
 20
-0.808200
  0
SEQEND
  0
POLYLINE
  8
LAYER_1
 40
0.050000
 41
0.050000
 66
1
 10
0
 20
0
 30
0
 70
1
  0
VERTEX
  8
LAYER_1
 10
4.146000
 20
-0.808200
  0
VERTEX
  8
LAYER_1
 10
4.151000
 20
-0.804200
  0
SEQEND
  0
POLYLINE
  8
LAYER_1
 40
0.050000
 41
0.050000
 66
1
 10
0
 20
0
 30
0
 70
1
  0
VERTEX
  8
LAYER_1
 10
4.146000
 20
-0.808200
  0
VERTEX
  8
LAYER_1
 10
4.142000
 20
-0.813200
  0
SEQEND
  0
POLYLINE
  8
LAYER_1
 40
0.050000
 41
0.050000
 66
1
 10
0
 20
0
 30
0
 70
1
  0
VERTEX
  8
LAYER_1
 10
4.142000
 20
-0.813200
  0
VERTEX
  8
LAYER_1
 10
4.146000
 20
-0.808200
  0
SEQEND
  0
POLYLINE
  8
LAYER_1
 40
0.050000
 41
0.050000
 66
1
 10
0
 20
0
 30
0
 70
1
  0
VERTEX
  8
LAYER_1
 10
4.142000
 20
-0.813200
  0
VERTEX
  8
LAYER_1
 10
4.139000
 20
-0.818200
  0
SEQEND
  0
POLYLINE
  8
LAYER_1
 40
0.050000
 41
0.050000
 66
1
 10
0
 20
0
 30
0
 70
1
  0
VERTEX
  8
LAYER_1
 10
4.139000
 20
-0.818200
  0
VERTEX
  8
LAYER_1
 10
4.142000
 20
-0.813200
  0
SEQEND
  0
POLYLINE
  8
LAYER_1
 40
0.050000
 41
0.050000
 66
1
 10
0
 20
0
 30
0
 70
1
  0
VERTEX
  8
LAYER_1
 10
4.139000
 20
-0.818200
  0
VERTEX
  8
LAYER_1
 10
4.136000
 20
-0.823200
  0
SEQEND
  0
POLYLINE
  8
LAYER_1
 40
0.050000
 41
0.050000
 66
1
 10
0
 20
0
 30
0
 70
1
  0
VERTEX
  8
LAYER_1
 10
4.136000
 20
-0.823200
  0
VERTEX
  8
LAYER_1
 10
4.139000
 20
-0.818200
  0
SEQEND
  0
POLYLINE
  8
LAYER_1
 40
0.050000
 41
0.050000
 66
1
 10
0
 20
0
 30
0
 70
1
  0
VERTEX
  8
LAYER_1
 10
4.136000
 20
-0.823200
  0
VERTEX
  8
LAYER_1
 10
4.133000
 20
-0.828200
  0
SEQEND
  0
POLYLINE
  8
LAYER_1
 40
0.050000
 41
0.050000
 66
1
 10
0
 20
0
 30
0
 70
1
  0
VERTEX
  8
LAYER_1
 10
4.133000
 20
-0.828200
  0
VERTEX
  8
LAYER_1
 10
4.136000
 20
-0.823200
  0
SEQEND
  0
POLYLINE
  8
LAYER_1
 40
0.050000
 41
0.050000
 66
1
 10
0
 20
0
 30
0
 70
1
  0
VERTEX
  8
LAYER_1
 10
4.133000
 20
-0.828200
  0
VERTEX
  8
LAYER_1
 10
4.131000
 20
-0.834200
  0
SEQEND
  0
POLYLINE
  8
LAYER_1
 40
0.050000
 41
0.050000
 66
1
 10
0
 20
0
 30
0
 70
1
  0
VERTEX
  8
LAYER_1
 10
4.131000
 20
-0.834200
  0
VERTEX
  8
LAYER_1
 10
4.133000
 20
-0.828200
  0
SEQEND
  0
POLYLINE
  8
LAYER_1
 40
0.050000
 41
0.050000
 66
1
 10
0
 20
0
 30
0
 70
1
  0
VERTEX
  8
LAYER_1
 10
4.131000
 20
-0.834200
  0
VERTEX
  8
LAYER_1
 10
4.129000
 20
-0.840200
  0
SEQEND
  0
POLYLINE
  8
LAYER_1
 40
0.050000
 41
0.050000
 66
1
 10
0
 20
0
 30
0
 70
1
  0
VERTEX
  8
LAYER_1
 10
4.129000
 20
-0.840200
  0
VERTEX
  8
LAYER_1
 10
4.131000
 20
-0.834200
  0
SEQEND
  0
POLYLINE
  8
LAYER_1
 40
0.050000
 41
0.050000
 66
1
 10
0
 20
0
 30
0
 70
1
  0
VERTEX
  8
LAYER_1
 10
4.129000
 20
-0.840200
  0
VERTEX
  8
LAYER_1
 10
4.128000
 20
-0.846200
  0
SEQEND
  0
POLYLINE
  8
LAYER_1
 40
0.050000
 41
0.050000
 66
1
 10
0
 20
0
 30
0
 70
1
  0
VERTEX
  8
LAYER_1
 10
4.128000
 20
-0.846200
  0
VERTEX
  8
LAYER_1
 10
4.129000
 20
-0.840200
  0
SEQEND
  0
POLYLINE
  8
LAYER_1
 40
0.050000
 41
0.050000
 66
1
 10
0
 20
0
 30
0
 70
1
  0
VERTEX
  8
LAYER_1
 10
4.128000
 20
-0.846200
  0
VERTEX
  8
LAYER_1
 10
4.128000
 20
-0.853200
  0
SEQEND
  0
POLYLINE
  8
LAYER_1
 40
0.050000
 41
0.050000
 66
1
 10
0
 20
0
 30
0
 70
1
  0
VERTEX
  8
LAYER_1
 10
4.128000
 20
-0.853200
  0
VERTEX
  8
LAYER_1
 10
4.128000
 20
-0.846200
  0
SEQEND
  0
POLYLINE
  8
LAYER_1
 40
0.050000
 41
0.050000
 66
1
 10
0
 20
0
 30
0
 70
1
  0
VERTEX
  8
LAYER_1
 10
4.128000
 20
-0.853200
  0
VERTEX
  8
LAYER_1
 10
4.128000
 20
-0.859200
  0
SEQEND
  0
POLYLINE
  8
LAYER_1
 40
0.050000
 41
0.050000
 66
1
 10
0
 20
0
 30
0
 70
1
  0
VERTEX
  8
LAYER_1
 10
4.128000
 20
-0.859200
  0
VERTEX
  8
LAYER_1
 10
4.128000
 20
-0.853200
  0
SEQEND
  0
POLYLINE
  8
LAYER_1
 40
0.050000
 41
0.050000
 66
1
 10
0
 20
0
 30
0
 70
1
  0
VERTEX
  8
LAYER_1
 10
4.128000
 20
-0.859200
  0
VERTEX
  8
LAYER_1
 10
4.129000
 20
-0.865200
  0
SEQEND
  0
POLYLINE
  8
LAYER_1
 40
0.050000
 41
0.050000
 66
1
 10
0
 20
0
 30
0
 70
1
  0
VERTEX
  8
LAYER_1
 10
4.129000
 20
-0.865200
  0
VERTEX
  8
LAYER_1
 10
4.128000
 20
-0.859200
  0
SEQEND
  0
POLYLINE
  8
LAYER_1
 40
0.050000
 41
0.050000
 66
1
 10
0
 20
0
 30
0
 70
1
  0
VERTEX
  8
LAYER_1
 10
4.129000
 20
-0.865200
  0
VERTEX
  8
LAYER_1
 10
4.131000
 20
-0.871200
  0
SEQEND
  0
POLYLINE
  8
LAYER_1
 40
0.050000
 41
0.050000
 66
1
 10
0
 20
0
 30
0
 70
1
  0
VERTEX
  8
LAYER_1
 10
4.131000
 20
-0.871200
  0
VERTEX
  8
LAYER_1
 10
4.129000
 20
-0.865200
  0
SEQEND
  0
POLYLINE
  8
LAYER_1
 40
0.050000
 41
0.050000
 66
1
 10
0
 20
0
 30
0
 70
1
  0
VERTEX
  8
LAYER_1
 10
4.131000
 20
-0.871200
  0
VERTEX
  8
LAYER_1
 10
4.133000
 20
-0.877200
  0
SEQEND
  0
POLYLINE
  8
LAYER_1
 40
0.050000
 41
0.050000
 66
1
 10
0
 20
0
 30
0
 70
1
  0
VERTEX
  8
LAYER_1
 10
4.133000
 20
-0.877200
  0
VERTEX
  8
LAYER_1
 10
4.131000
 20
-0.871200
  0
SEQEND
  0
POLYLINE
  8
LAYER_1
 40
0.050000
 41
0.050000
 66
1
 10
0
 20
0
 30
0
 70
1
  0
VERTEX
  8
LAYER_1
 10
4.133000
 20
-0.877200
  0
VERTEX
  8
LAYER_1
 10
4.136000
 20
-0.882200
  0
SEQEND
  0
POLYLINE
  8
LAYER_1
 40
0.050000
 41
0.050000
 66
1
 10
0
 20
0
 30
0
 70
1
  0
VERTEX
  8
LAYER_1
 10
4.136000
 20
-0.882200
  0
VERTEX
  8
LAYER_1
 10
4.133000
 20
-0.877200
  0
SEQEND
  0
POLYLINE
  8
LAYER_1
 40
0.050000
 41
0.050000
 66
1
 10
0
 20
0
 30
0
 70
1
  0
VERTEX
  8
LAYER_1
 10
4.136000
 20
-0.882200
  0
VERTEX
  8
LAYER_1
 10
4.139000
 20
-0.887200
  0
SEQEND
  0
POLYLINE
  8
LAYER_1
 40
0.050000
 41
0.050000
 66
1
 10
0
 20
0
 30
0
 70
1
  0
VERTEX
  8
LAYER_1
 10
4.139000
 20
-0.887200
  0
VERTEX
  8
LAYER_1
 10
4.136000
 20
-0.882200
  0
SEQEND
  0
POLYLINE
  8
LAYER_1
 40
0.050000
 41
0.050000
 66
1
 10
0
 20
0
 30
0
 70
1
  0
VERTEX
  8
LAYER_1
 10
4.139000
 20
-0.887200
  0
VERTEX
  8
LAYER_1
 10
4.142000
 20
-0.892200
  0
SEQEND
  0
POLYLINE
  8
LAYER_1
 40
0.050000
 41
0.050000
 66
1
 10
0
 20
0
 30
0
 70
1
  0
VERTEX
  8
LAYER_1
 10
4.142000
 20
-0.892200
  0
VERTEX
  8
LAYER_1
 10
4.139000
 20
-0.887200
  0
SEQEND
  0
POLYLINE
  8
LAYER_1
 40
0.050000
 41
0.050000
 66
1
 10
0
 20
0
 30
0
 70
1
  0
VERTEX
  8
LAYER_1
 10
4.142000
 20
-0.892200
  0
VERTEX
  8
LAYER_1
 10
4.146000
 20
-0.897200
  0
SEQEND
  0
POLYLINE
  8
LAYER_1
 40
0.050000
 41
0.050000
 66
1
 10
0
 20
0
 30
0
 70
1
  0
VERTEX
  8
LAYER_1
 10
4.146000
 20
-0.897200
  0
VERTEX
  8
LAYER_1
 10
4.142000
 20
-0.892200
  0
SEQEND
  0
POLYLINE
  8
LAYER_1
 40
0.050000
 41
0.050000
 66
1
 10
0
 20
0
 30
0
 70
1
  0
VERTEX
  8
LAYER_1
 10
4.146000
 20
-0.897200
  0
VERTEX
  8
LAYER_1
 10
4.151000
 20
-0.901200
  0
SEQEND
  0
POLYLINE
  8
LAYER_1
 40
0.050000
 41
0.050000
 66
1
 10
0
 20
0
 30
0
 70
1
  0
VERTEX
  8
LAYER_1
 10
4.151000
 20
-0.901200
  0
VERTEX
  8
LAYER_1
 10
4.146000
 20
-0.897200
  0
SEQEND
  0
POLYLINE
  8
LAYER_1
 40
0.050000
 41
0.050000
 66
1
 10
0
 20
0
 30
0
 70
1
  0
VERTEX
  8
LAYER_1
 10
4.151000
 20
-0.901200
  0
VERTEX
  8
LAYER_1
 10
4.156000
 20
-0.904200
  0
SEQEND
  0
POLYLINE
  8
LAYER_1
 40
0.050000
 41
0.050000
 66
1
 10
0
 20
0
 30
0
 70
1
  0
VERTEX
  8
LAYER_1
 10
4.156000
 20
-0.904200
  0
VERTEX
  8
LAYER_1
 10
4.151000
 20
-0.901200
  0
SEQEND
  0
POLYLINE
  8
LAYER_1
 40
0.050000
 41
0.050000
 66
1
 10
0
 20
0
 30
0
 70
1
  0
VERTEX
  8
LAYER_1
 10
4.156000
 20
-0.904200
  0
VERTEX
  8
LAYER_1
 10
4.161000
 20
-0.907200
  0
SEQEND
  0
POLYLINE
  8
LAYER_1
 40
0.050000
 41
0.050000
 66
1
 10
0
 20
0
 30
0
 70
1
  0
VERTEX
  8
LAYER_1
 10
4.161000
 20
-0.907200
  0
VERTEX
  8
LAYER_1
 10
4.156000
 20
-0.904200
  0
SEQEND
  0
POLYLINE
  8
LAYER_1
 40
0.050000
 41
0.050000
 66
1
 10
0
 20
0
 30
0
 70
1
  0
VERTEX
  8
LAYER_1
 10
4.161000
 20
-0.907200
  0
VERTEX
  8
LAYER_1
 10
4.166000
 20
-0.910200
  0
SEQEND
  0
POLYLINE
  8
LAYER_1
 40
0.050000
 41
0.050000
 66
1
 10
0
 20
0
 30
0
 70
1
  0
VERTEX
  8
LAYER_1
 10
4.166000
 20
-0.910200
  0
VERTEX
  8
LAYER_1
 10
4.161000
 20
-0.907200
  0
SEQEND
  0
POLYLINE
  8
LAYER_1
 40
0.050000
 41
0.050000
 66
1
 10
0
 20
0
 30
0
 70
1
  0
VERTEX
  8
LAYER_1
 10
4.166000
 20
-0.910200
  0
VERTEX
  8
LAYER_1
 10
4.172000
 20
-0.912200
  0
SEQEND
  0
POLYLINE
  8
LAYER_1
 40
0.050000
 41
0.050000
 66
1
 10
0
 20
0
 30
0
 70
1
  0
VERTEX
  8
LAYER_1
 10
4.172000
 20
-0.912200
  0
VERTEX
  8
LAYER_1
 10
4.166000
 20
-0.910200
  0
SEQEND
  0
POLYLINE
  8
LAYER_1
 40
0.050000
 41
0.050000
 66
1
 10
0
 20
0
 30
0
 70
1
  0
VERTEX
  8
LAYER_1
 10
4.172000
 20
-0.912200
  0
VERTEX
  8
LAYER_1
 10
4.178000
 20
-0.913200
  0
SEQEND
  0
POLYLINE
  8
LAYER_1
 40
0.050000
 41
0.050000
 66
1
 10
0
 20
0
 30
0
 70
1
  0
VERTEX
  8
LAYER_1
 10
4.178000
 20
-0.913200
  0
VERTEX
  8
LAYER_1
 10
4.172000
 20
-0.912200
  0
SEQEND
  0
POLYLINE
  8
LAYER_1
 40
0.050000
 41
0.050000
 66
1
 10
0
 20
0
 30
0
 70
1
  0
VERTEX
  8
LAYER_1
 10
4.178000
 20
-0.913200
  0
VERTEX
  8
LAYER_1
 10
4.184000
 20
-0.914200
  0
SEQEND
  0
POLYLINE
  8
LAYER_1
 40
0.050000
 41
0.050000
 66
1
 10
0
 20
0
 30
0
 70
1
  0
VERTEX
  8
LAYER_1
 10
4.184000
 20
-0.914200
  0
VERTEX
  8
LAYER_1
 10
4.178000
 20
-0.913200
  0
SEQEND
  0
POLYLINE
  8
LAYER_1
 40
0.050000
 41
0.050000
 66
1
 10
0
 20
0
 30
0
 70
1
  0
VERTEX
  8
LAYER_1
 10
4.184000
 20
-0.914200
  0
VERTEX
  8
LAYER_1
 10
4.190000
 20
-0.915200
  0
SEQEND
  0
POLYLINE
  8
LAYER_1
 40
0.050000
 41
0.050000
 66
1
 10
0
 20
0
 30
0
 70
1
  0
VERTEX
  8
LAYER_1
 10
4.190000
 20
-0.915200
  0
VERTEX
  8
LAYER_1
 10
4.184000
 20
-0.914200
  0
SEQEND
  0
POLYLINE
  8
LAYER_1
 40
0.050000
 41
0.050000
 66
1
 10
0
 20
0
 30
0
 70
1
  0
VERTEX
  8
LAYER_1
 10
4.190000
 20
-0.915200
  0
VERTEX
  8
LAYER_1
 10
4.197000
 20
-0.914200
  0
SEQEND
  0
POLYLINE
  8
LAYER_1
 40
0.050000
 41
0.050000
 66
1
 10
0
 20
0
 30
0
 70
1
  0
VERTEX
  8
LAYER_1
 10
4.197000
 20
-0.914200
  0
VERTEX
  8
LAYER_1
 10
4.190000
 20
-0.915200
  0
SEQEND
  0
POLYLINE
  8
LAYER_1
 40
0.050000
 41
0.050000
 66
1
 10
0
 20
0
 30
0
 70
1
  0
VERTEX
  8
LAYER_1
 10
4.197000
 20
-0.914200
  0
VERTEX
  8
LAYER_1
 10
4.203000
 20
-0.913200
  0
SEQEND
  0
POLYLINE
  8
LAYER_1
 40
0.050000
 41
0.050000
 66
1
 10
0
 20
0
 30
0
 70
1
  0
VERTEX
  8
LAYER_1
 10
4.203000
 20
-0.913200
  0
VERTEX
  8
LAYER_1
 10
4.197000
 20
-0.914200
  0
SEQEND
  0
POLYLINE
  8
LAYER_1
 40
0.050000
 41
0.050000
 66
1
 10
0
 20
0
 30
0
 70
1
  0
VERTEX
  8
LAYER_1
 10
4.203000
 20
-0.913200
  0
VERTEX
  8
LAYER_1
 10
4.209000
 20
-0.912200
  0
SEQEND
  0
POLYLINE
  8
LAYER_1
 40
0.050000
 41
0.050000
 66
1
 10
0
 20
0
 30
0
 70
1
  0
VERTEX
  8
LAYER_1
 10
4.209000
 20
-0.912200
  0
VERTEX
  8
LAYER_1
 10
4.203000
 20
-0.913200
  0
SEQEND
  0
POLYLINE
  8
LAYER_1
 40
0.050000
 41
0.050000
 66
1
 10
0
 20
0
 30
0
 70
1
  0
VERTEX
  8
LAYER_1
 10
4.209000
 20
-0.912200
  0
VERTEX
  8
LAYER_1
 10
4.215000
 20
-0.910200
  0
SEQEND
  0
POLYLINE
  8
LAYER_1
 40
0.050000
 41
0.050000
 66
1
 10
0
 20
0
 30
0
 70
1
  0
VERTEX
  8
LAYER_1
 10
4.215000
 20
-0.910200
  0
VERTEX
  8
LAYER_1
 10
4.209000
 20
-0.912200
  0
SEQEND
  0
POLYLINE
  8
LAYER_1
 40
0.050000
 41
0.050000
 66
1
 10
0
 20
0
 30
0
 70
1
  0
VERTEX
  8
LAYER_1
 10
4.215000
 20
-0.910200
  0
VERTEX
  8
LAYER_1
 10
4.220000
 20
-0.907200
  0
SEQEND
  0
POLYLINE
  8
LAYER_1
 40
0.050000
 41
0.050000
 66
1
 10
0
 20
0
 30
0
 70
1
  0
VERTEX
  8
LAYER_1
 10
4.220000
 20
-0.907200
  0
VERTEX
  8
LAYER_1
 10
4.215000
 20
-0.910200
  0
SEQEND
  0
POLYLINE
  8
LAYER_1
 40
0.050000
 41
0.050000
 66
1
 10
0
 20
0
 30
0
 70
1
  0
VERTEX
  8
LAYER_1
 10
4.220000
 20
-0.907200
  0
VERTEX
  8
LAYER_1
 10
4.225000
 20
-0.904200
  0
SEQEND
  0
POLYLINE
  8
LAYER_1
 40
0.050000
 41
0.050000
 66
1
 10
0
 20
0
 30
0
 70
1
  0
VERTEX
  8
LAYER_1
 10
4.225000
 20
-0.904200
  0
VERTEX
  8
LAYER_1
 10
4.220000
 20
-0.907200
  0
SEQEND
  0
POLYLINE
  8
LAYER_1
 40
0.050000
 41
0.050000
 66
1
 10
0
 20
0
 30
0
 70
1
  0
VERTEX
  8
LAYER_1
 10
4.225000
 20
-0.904200
  0
VERTEX
  8
LAYER_1
 10
4.230000
 20
-0.901200
  0
SEQEND
  0
POLYLINE
  8
LAYER_1
 40
0.050000
 41
0.050000
 66
1
 10
0
 20
0
 30
0
 70
1
  0
VERTEX
  8
LAYER_1
 10
4.230000
 20
-0.901200
  0
VERTEX
  8
LAYER_1
 10
4.225000
 20
-0.904200
  0
SEQEND
  0
POLYLINE
  8
LAYER_1
 40
0.050000
 41
0.050000
 66
1
 10
0
 20
0
 30
0
 70
1
  0
VERTEX
  8
LAYER_1
 10
4.230000
 20
-0.901200
  0
VERTEX
  8
LAYER_1
 10
4.234000
 20
-0.897200
  0
SEQEND
  0
POLYLINE
  8
LAYER_1
 40
0.050000
 41
0.050000
 66
1
 10
0
 20
0
 30
0
 70
1
  0
VERTEX
  8
LAYER_1
 10
4.234000
 20
-0.897200
  0
VERTEX
  8
LAYER_1
 10
4.230000
 20
-0.901200
  0
SEQEND
  0
POLYLINE
  8
LAYER_1
 40
0.050000
 41
0.050000
 66
1
 10
0
 20
0
 30
0
 70
1
  0
VERTEX
  8
LAYER_1
 10
4.234000
 20
-0.897200
  0
VERTEX
  8
LAYER_1
 10
4.238000
 20
-0.892200
  0
SEQEND
  0
POLYLINE
  8
LAYER_1
 40
0.050000
 41
0.050000
 66
1
 10
0
 20
0
 30
0
 70
1
  0
VERTEX
  8
LAYER_1
 10
4.238000
 20
-0.892200
  0
VERTEX
  8
LAYER_1
 10
4.234000
 20
-0.897200
  0
SEQEND
  0
POLYLINE
  8
LAYER_1
 40
0.050000
 41
0.050000
 66
1
 10
0
 20
0
 30
0
 70
1
  0
VERTEX
  8
LAYER_1
 10
4.238000
 20
-0.892200
  0
VERTEX
  8
LAYER_1
 10
4.242000
 20
-0.887200
  0
SEQEND
  0
POLYLINE
  8
LAYER_1
 40
0.050000
 41
0.050000
 66
1
 10
0
 20
0
 30
0
 70
1
  0
VERTEX
  8
LAYER_1
 10
4.242000
 20
-0.887200
  0
VERTEX
  8
LAYER_1
 10
4.238000
 20
-0.892200
  0
SEQEND
  0
POLYLINE
  8
LAYER_1
 40
0.050000
 41
0.050000
 66
1
 10
0
 20
0
 30
0
 70
1
  0
VERTEX
  8
LAYER_1
 10
4.242000
 20
-0.887200
  0
VERTEX
  8
LAYER_1
 10
4.245000
 20
-0.882200
  0
SEQEND
  0
POLYLINE
  8
LAYER_1
 40
0.050000
 41
0.050000
 66
1
 10
0
 20
0
 30
0
 70
1
  0
VERTEX
  8
LAYER_1
 10
4.245000
 20
-0.882200
  0
VERTEX
  8
LAYER_1
 10
4.242000
 20
-0.887200
  0
SEQEND
  0
POLYLINE
  8
LAYER_1
 40
0.050000
 41
0.050000
 66
1
 10
0
 20
0
 30
0
 70
1
  0
VERTEX
  8
LAYER_1
 10
4.245000
 20
-0.882200
  0
VERTEX
  8
LAYER_1
 10
4.248000
 20
-0.877200
  0
SEQEND
  0
POLYLINE
  8
LAYER_1
 40
0.050000
 41
0.050000
 66
1
 10
0
 20
0
 30
0
 70
1
  0
VERTEX
  8
LAYER_1
 10
4.248000
 20
-0.877200
  0
VERTEX
  8
LAYER_1
 10
4.245000
 20
-0.882200
  0
SEQEND
  0
POLYLINE
  8
LAYER_1
 40
0.050000
 41
0.050000
 66
1
 10
0
 20
0
 30
0
 70
1
  0
VERTEX
  8
LAYER_1
 10
4.248000
 20
-0.877200
  0
VERTEX
  8
LAYER_1
 10
4.250000
 20
-0.871200
  0
SEQEND
  0
POLYLINE
  8
LAYER_1
 40
0.050000
 41
0.050000
 66
1
 10
0
 20
0
 30
0
 70
1
  0
VERTEX
  8
LAYER_1
 10
4.250000
 20
-0.871200
  0
VERTEX
  8
LAYER_1
 10
4.248000
 20
-0.877200
  0
SEQEND
  0
POLYLINE
  8
LAYER_1
 40
0.050000
 41
0.050000
 66
1
 10
0
 20
0
 30
0
 70
1
  0
VERTEX
  8
LAYER_1
 10
4.250000
 20
-0.871200
  0
VERTEX
  8
LAYER_1
 10
4.251000
 20
-0.865200
  0
SEQEND
  0
POLYLINE
  8
LAYER_1
 40
0.050000
 41
0.050000
 66
1
 10
0
 20
0
 30
0
 70
1
  0
VERTEX
  8
LAYER_1
 10
4.251000
 20
-0.865200
  0
VERTEX
  8
LAYER_1
 10
4.250000
 20
-0.871200
  0
SEQEND
  0
POLYLINE
  8
LAYER_1
 40
0.050000
 41
0.050000
 66
1
 10
0
 20
0
 30
0
 70
1
  0
VERTEX
  8
LAYER_1
 10
4.251000
 20
-0.865200
  0
VERTEX
  8
LAYER_1
 10
4.252000
 20
-0.859200
  0
SEQEND
  0
POLYLINE
  8
LAYER_1
 40
0.050000
 41
0.050000
 66
1
 10
0
 20
0
 30
0
 70
1
  0
VERTEX
  8
LAYER_1
 10
4.252000
 20
-0.859200
  0
VERTEX
  8
LAYER_1
 10
4.251000
 20
-0.865200
  0
SEQEND
  0
POLYLINE
  8
LAYER_1
 40
0.050000
 41
0.050000
 66
1
 10
0
 20
0
 30
0
 70
1
  0
VERTEX
  8
LAYER_1
 10
4.252000
 20
-0.859200
  0
VERTEX
  8
LAYER_1
 10
4.253000
 20
-0.853200
  0
SEQEND
  0
POLYLINE
  8
LAYER_1
 40
0.050000
 41
0.050000
 66
1
 10
0
 20
0
 30
0
 70
1
  0
VERTEX
  8
LAYER_1
 10
4.253000
 20
-0.853200
  0
VERTEX
  8
LAYER_1
 10
4.252000
 20
-0.859200
  0
SEQEND
  0
ENDBLK
  0
BLOCK
  8
LAYER_1
  2
AIGNBL01010004
 70
64
 10
0
 20
0
 30
0
  3
AIGNBL01010004
  0
INSERT
  8
LAYER_1
  2
AIGNBL01020005
 10
0
 20
0
 30
0
  0
INSERT
  8
LAYER_1
  2
AIGNBL01020006
 10
0
 20
0
 30
0
  0
INSERT
  8
LAYER_1
  2
AIGNBL01020007
 10
0
 20
0
 30
0
  0
INSERT
  8
LAYER_1
  2
AIGNBL01020008
 10
0
 20
0
 30
0
  0
INSERT
  8
LAYER_1
  2
AIGNBL01020009
 10
0
 20
0
 30
0
  0
INSERT
  8
LAYER_1
  2
AIGNBL0102000A
 10
0
 20
0
 30
0
  0
INSERT
  8
LAYER_1
  2
AIGNBL0102000B
 10
0
 20
0
 30
0
  0
INSERT
  8
LAYER_1
  2
AIGNBL0102000C
 10
0
 20
0
 30
0
  0
INSERT
  8
LAYER_1
  2
AIGNBL0102000D
 10
0
 20
0
 30
0
  0
INSERT
  8
LAYER_1
  2
AIGNBL0102000E
 10
0
 20
0
 30
0
  0
INSERT
  8
LAYER_1
  2
AIGNBL0102000F
 10
0
 20
0
 30
0
  0
INSERT
  8
LAYER_1
  2
AIGNBL01020010
 10
0
 20
0
 30
0
  0
INSERT
  8
LAYER_1
  2
AIGNBL01020011
 10
0
 20
0
 30
0
  0
INSERT
  8
LAYER_1
  2
AIGNBL01020012
 10
0
 20
0
 30
0
  0
INSERT
  8
LAYER_1
  2
AIGNBL01020013
 10
0
 20
0
 30
0
  0
INSERT
  8
LAYER_1
  2
AIGNBL01020014
 10
0
 20
0
 30
0
  0
INSERT
  8
LAYER_1
  2
AIGNBL01020015
 10
0
 20
0
 30
0
  0
INSERT
  8
LAYER_1
  2
AIGNBL01020016
 10
0
 20
0
 30
0
  0
INSERT
  8
LAYER_1
  2
AIGNBL01020017
 10
0
 20
0
 30
0
  0
INSERT
  8
LAYER_1
  2
AIGNBL01020018
 10
0
 20
0
 30
0
  0
INSERT
  8
LAYER_1
  2
AIGNBL01020019
 10
0
 20
0
 30
0
  0
INSERT
  8
LAYER_1
  2
AIGNBL0102001A
 10
0
 20
0
 30
0
  0
ENDBLK
  0
BLOCK
  8
LAYER_1
  2
AIGNBL0101001B
 70
64
 10
0
 20
0
 30
0
  3
AIGNBL0101001B
  0
INSERT
  8
LAYER_1
  2
AIGNBL0102001C
 10
0
 20
0
 30
0
  0
INSERT
  8
LAYER_1
  2
AIGNBL0102001D
 10
0
 20
0
 30
0
  0
INSERT
  8
LAYER_1
  2
AIGNBL0102001E
 10
0
 20
0
 30
0
  0
INSERT
  8
LAYER_1
  2
AIGNBL0102001F
 10
0
 20
0
 30
0
  0
INSERT
  8
LAYER_1
  2
AIGNBL01020020
 10
0
 20
0
 30
0
  0
INSERT
  8
LAYER_1
  2
AIGNBL01020021
 10
0
 20
0
 30
0
  0
INSERT
  8
LAYER_1
  2
AIGNBL01020022
 10
0
 20
0
 30
0
  0
INSERT
  8
LAYER_1
  2
AIGNBL01020023
 10
0
 20
0
 30
0
  0
ENDBLK
  0
ENDSEC
  0
SECTION
  2
ENTITIES
  0
INSERT
  8
LAYER_1
  2
AIGNBL01010002
 10
0
 20
0
 30
0
  0
INSERT
  8
LAYER_1
  2
AIGNBL01010003
 10
0
 20
0
 30
0
  0
INSERT
  8
LAYER_1
  2
AIGNBL01010004
 10
0
 20
0
 30
0
  0
INSERT
  8
LAYER_1
  2
AIGNBL0101001B
 10
0
 20
0
 30
0
  0
ENDSEC
  0
EOF
